  0
SECTION
  2
HEADER
  9
$ACADVER
  1
AC1024
  9
$ACADMAINTVER
 70
     6
  9
$DWGCODEPAGE
  3
ANSI_932
  9
$INSBASE
 10
0.0
 20
0.0
 30
0.0
  9
$EXTMIN
 10
-6300.0
 20
-4455.0
 30
0.0
  9
$EXTMAX
 10
6300.0
 20
4455.0
 30
0.0
  9
$LIMMIN
 10
-6300.0
 20
-4455.0
  9
$LIMMAX
 10
6300.0
 20
4455.0
  9
$ORTHOMODE
 70
     0
  9
$REGENMODE
 70
     1
  9
$FILLMODE
 70
     1
  9
$QTEXTMODE
 70
     0
  9
$MIRRTEXT
 70
     1
  9
$LTSCALE
 40
30.0
  9
$ATTMODE
 70
     1
  9
$TEXTSIZE
 40
2.5
  9
$TRACEWID
 40
1.0
  9
$TEXTSTYLE
  7
Standard
  9
$CLAYER
  8
0
  9
$CELTYPE
  6
ByLayer
  9
$CECOLOR
 62
   256
  9
$CELTSCALE
 40
1.0
  9
$DISPSILH
 70
     0
  9
$DIMSCALE
 40
1.0
  9
$DIMASZ
 40
2.5
  9
$DIMEXO
 40
0.625
  9
$DIMDLI
 40
3.75
  9
$DIMRND
 40
0.0
  9
$DIMDLE
 40
0.0
  9
$DIMEXE
 40
1.25
  9
$DIMTP
 40
0.0
  9
$DIMTM
 40
0.0
  9
$DIMTXT
 40
2.5
  9
$DIMCEN
 40
2.5
  9
$DIMTSZ
 40
0.0
  9
$DIMTOL
 70
     0
  9
$DIMLIM
 70
     0
  9
$DIMTIH
 70
     0
  9
$DIMTOH
 70
     0
  9
$DIMSE1
 70
     0
  9
$DIMSE2
 70
     0
  9
$DIMTAD
 70
     1
  9
$DIMZIN
 70
     8
  9
$DIMBLK
  1

  9
$DIMASO
 70
     1
  9
$DIMSHO
 70
     1
  9
$DIMPOST
  1

  9
$DIMAPOST
  1

  9
$DIMALT
 70
     0
  9
$DIMALTD
 70
     3
  9
$DIMALTF
 40
0.03937007874016
  9
$DIMLFAC
 40
1.0
  9
$DIMTOFL
 70
     1
  9
$DIMTVP
 40
0.0
  9
$DIMTIX
 70
     0
  9
$DIMSOXD
 70
     0
  9
$DIMSAH
 70
     0
  9
$DIMBLK1
  1

  9
$DIMBLK2
  1

  9
$DIMSTYLE
  2
ISO-25
  9
$DIMCLRD
 70
     0
  9
$DIMCLRE
 70
     0
  9
$DIMCLRT
 70
     0
  9
$DIMTFAC
 40
1.0
  9
$DIMGAP
 40
0.625
  9
$DIMJUST
 70
     0
  9
$DIMSD1
 70
     0
  9
$DIMSD2
 70
     0
  9
$DIMTOLJ
 70
     0
  9
$DIMTZIN
 70
     8
  9
$DIMALTZ
 70
     0
  9
$DIMALTTZ
 70
     0
  9
$DIMUPT
 70
     0
  9
$DIMDEC
 70
     2
  9
$DIMTDEC
 70
     2
  9
$DIMALTU
 70
     2
  9
$DIMALTTD
 70
     3
  9
$DIMTXSTY
  7
Standard
  9
$DIMAUNIT
 70
     0
  9
$DIMADEC
 70
     0
  9
$DIMALTRND
 40
0.0
  9
$DIMAZIN
 70
     0
  9
$DIMDSEP
 70
    44
  9
$DIMATFIT
 70
     3
  9
$DIMFRAC
 70
     0
  9
$DIMLDRBLK
  1

  9
$DIMLUNIT
 70
     2
  9
$DIMLWD
 70
    -2
  9
$DIMLWE
 70
    -2
  9
$DIMTMOVE
 70
     0
  9
$DIMFXL
 40
1.0
  9
$DIMFXLON
 70
     0
  9
$DIMJOGANG
 40
0.7853981633974483
  9
$DIMTFILL
 70
     0
  9
$DIMTFILLCLR
 70
     0
  9
$DIMARCSYM
 70
     0
  9
$DIMLTYPE
  6

  9
$DIMLTEX1
  6

  9
$DIMLTEX2
  6

  9
$DIMTXTDIRECTION
 70
     0
  9
$LUNITS
 70
     2
  9
$LUPREC
 70
     4
  9
$SKETCHINC
 40
1.0
  9
$FILLETRAD
 40
10.0
  9
$AUNITS
 70
     0
  9
$AUPREC
 70
     0
  9
$MENU
  1
.
  9
$ELEVATION
 40
0.0
  9
$PELEVATION
 40
0.0
  9
$THICKNESS
 40
0.0
  9
$LIMCHECK
 70
     0
  9
$CHAMFERA
 40
10.0
  9
$CHAMFERB
 40
10.0
  9
$CHAMFERC
 40
20.0
  9
$CHAMFERD
 40
0.0
  9
$SKPOLY
 70
     0
  9
$TDCREATE
 40
2459432.54376654
  9
$TDUCREATE
 40
2459432.16876654
  9
$TDUPDATE
 40
2459432.543766551
  9
$TDUUPDATE
 40
2459432.168766551
  9
$TDINDWG
 40
0.0000000116
  9
$TDUSRTIMER
 40
0.0000000116
  9
$USRTIMER
 70
     1
  9
$ANGBASE
 50
0.0
  9
$ANGDIR
 70
     0
  9
$PDMODE
 70
     0
  9
$PDSIZE
 40
0.0
  9
$PLINEWID
 40
0.0
  9
$SPLFRAME
 70
     0
  9
$SPLINETYPE
 70
     6
  9
$SPLINESEGS
 70
     8
  9
$HANDSEED
  5
499
  9
$SURFTAB1
 70
     6
  9
$SURFTAB2
 70
     6
  9
$SURFTYPE
 70
     6
  9
$SURFU
 70
     6
  9
$SURFV
 70
     6
  9
$UCSBASE
  2

  9
$UCSNAME
  2

  9
$UCSORG
 10
0.0
 20
0.0
 30
0.0
  9
$UCSXDIR
 10
1.0
 20
0.0
 30
0.0
  9
$UCSYDIR
 10
0.0
 20
1.0
 30
0.0
  9
$UCSORTHOREF
  2

  9
$UCSORTHOVIEW
 70
     0
  9
$UCSORGTOP
 10
0.0
 20
0.0
 30
0.0
  9
$UCSORGBOTTOM
 10
0.0
 20
0.0
 30
0.0
  9
$UCSORGLEFT
 10
0.0
 20
0.0
 30
0.0
  9
$UCSORGRIGHT
 10
0.0
 20
0.0
 30
0.0
  9
$UCSORGFRONT
 10
0.0
 20
0.0
 30
0.0
  9
$UCSORGBACK
 10
0.0
 20
0.0
 30
0.0
  9
$PUCSBASE
  2

  9
$PUCSNAME
  2

  9
$PUCSORG
 10
0.0
 20
0.0
 30
0.0
  9
$PUCSXDIR
 10
1.0
 20
0.0
 30
0.0
  9
$PUCSYDIR
 10
0.0
 20
1.0
 30
0.0
  9
$PUCSORTHOREF
  2

  9
$PUCSORTHOVIEW
 70
     0
  9
$PUCSORGTOP
 10
0.0
 20
0.0
 30
0.0
  9
$PUCSORGBOTTOM
 10
0.0
 20
0.0
 30
0.0
  9
$PUCSORGLEFT
 10
0.0
 20
0.0
 30
0.0
  9
$PUCSORGRIGHT
 10
0.0
 20
0.0
 30
0.0
  9
$PUCSORGFRONT
 10
0.0
 20
0.0
 30
0.0
  9
$PUCSORGBACK
 10
0.0
 20
0.0
 30
0.0
  9
$USERI1
 70
     0
  9
$USERI2
 70
     0
  9
$USERI3
 70
     0
  9
$USERI4
 70
     0
  9
$USERI5
 70
     0
  9
$USERR1
 40
0.0
  9
$USERR2
 40
0.0
  9
$USERR3
 40
0.0
  9
$USERR4
 40
0.0
  9
$USERR5
 40
0.0
  9
$WORLDVIEW
 70
     1
  9
$SHADEDGE
 70
     3
  9
$SHADEDIF
 70
    70
  9
$TILEMODE
 70
     1
  9
$MAXACTVP
 70
    64
  9
$PINSBASE
 10
0.0
 20
0.0
 30
0.0
  9
$PLIMCHECK
 70
     0
  9
$PEXTMIN
 10
1.000000000000000E+20
 20
1.000000000000000E+20
 30
1.000000000000000E+20
  9
$PEXTMAX
 10
-1.000000000000000E+20
 20
-1.000000000000000E+20
 30
-1.000000000000000E+20
  9
$PLIMMIN
 10
0.0
 20
0.0
  9
$PLIMMAX
 10
420.0
 20
297.0
  9
$UNITMODE
 70
     0
  9
$VISRETAIN
 70
     1
  9
$PLINEGEN
 70
     0
  9
$PSLTSCALE
 70
     1
  9
$TREEDEPTH
 70
  3020
  9
$CMLSTYLE
  2
Standard
  9
$CMLJUST
 70
     0
  9
$CMLSCALE
 40
20.0
  9
$PROXYGRAPHICS
 70
     1
  9
$MEASUREMENT
 70
     1
  9
$CELWEIGHT
370
    -1
  9
$ENDCAPS
280
     0
  9
$JOINSTYLE
280
     0
  9
$LWDISPLAY
290
     0
  9
$INSUNITS
 70
     4
  9
$HYPERLINKBASE
  1

  9
$STYLESHEET
  1

  9
$XEDIT
290
     1
  9
$CEPSNTYPE
380
     0
  9
$PSTYLEMODE
290
     1
  9
$FINGERPRINTGUID
  2
{BC0C2CBA-51A8-4666-8696-7980D6CAB27A}
  9
$VERSIONGUID
  2
{FAEB1C32-E019-11D5-929B-00C0DF256EC4}
  9
$EXTNAMES
290
     1
  9
$PSVPSCALE
 40
0.0
  9
$OLESTARTUP
290
     0
  9
$SORTENTS
280
   127
  9
$INDEXCTL
280
     0
  9
$HIDETEXT
280
     1
  9
$XCLIPFRAME
280
     2
  9
$HALOGAP
280
     0
  9
$OBSCOLOR
 70
   257
  9
$OBSLTYPE
280
     0
  9
$INTERSECTIONDISPLAY
280
     0
  9
$INTERSECTIONCOLOR
 70
   257
  9
$DIMASSOC
280
     2
  9
$PROJECTNAME
  1

  9
$CAMERADISPLAY
290
     0
  9
$LENSLENGTH
 40
50.0
  9
$CAMERAHEIGHT
 40
0.0
  9
$STEPSPERSEC
 40
2.0
  9
$STEPSIZE
 40
6.0
  9
$3DDWFPREC
 40
2.0
  9
$PSOLWIDTH
 40
5.0
  9
$PSOLHEIGHT
 40
80.0
  9
$LOFTANG1
 40
1.570796326794897
  9
$LOFTANG2
 40
1.570796326794897
  9
$LOFTMAG1
 40
0.0
  9
$LOFTMAG2
 40
0.0
  9
$LOFTPARAM
 70
     7
  9
$LOFTNORMALS
280
     1
  9
$LATITUDE
 40
37.795
  9
$LONGITUDE
 40
-122.394
  9
$NORTHDIRECTION
 40
0.0
  9
$TIMEZONE
 70
 -8000
  9
$LIGHTGLYPHDISPLAY
280
     1
  9
$TILEMODELIGHTSYNCH
280
     1
  9
$SOLIDHIST
280
     1
  9
$SHOWHIST
280
     1
  9
$DWFFRAME
280
     2
  9
$DGNFRAME
280
     2
  9
$REALWORLDSCALE
290
     1
  9
$INTERFERECOLOR
 62
   256
  9
$CSHADOW
280
     0
  9
$SHADOWPLANELOCATION
 40
0.0
  0
ENDSEC
  0
SECTION
  2
CLASSES
  0
CLASS
  1
ACDBDICTIONARYWDFLT
  2
AcDbDictionaryWithDefault
  3
ObjectDBX Classes
 90
        0
 91
        4
280
     0
281
     0
  0
CLASS
  1
VISUALSTYLE
  2
AcDbVisualStyle
  3
ObjectDBX Classes
 90
     4095
 91
        4
280
     0
281
     0
  0
CLASS
  1
MATERIAL
  2
AcDbMaterial
  3
ObjectDBX Classes
 90
     1153
 91
        4
280
     0
281
     0
  0
ENDSEC
  0
SECTION
  2
TABLES
  0
TABLE
  2
VPORT
  5
8
330
0
100
AcDbSymbolTable
 70
     1
  0
VPORT
  5
29
330
8
100
AcDbSymbolTableRecord
100
AcDbViewportTableRecord
  2
*Active
 70
     0
 10
0.0
 20
0.0
 11
1.0
 21
1.0
 12
0.0
 22
0.0
 13
0.0
 23
0.0
 14
10.0
 24
10.0
 15
10.0
 25
10.0
 16
0.0
 26
0.0
 36
1.0
 17
0.0
 27
0.0
 37
0.0
 40
9801.0
 41
1.414141414141414
 42
50.0
 43
0.0
 44
0.0
 50
0.0
 51
0.0
 71
     0
 72
 10000
 73
     1
 74
     3
 75
     0
 76
     0
 77
     0
 78
     0
281
     0
 65
     1
110
0.0
120
0.0
130
0.0
111
1.0
121
0.0
131
0.0
112
0.0
122
1.0
132
0.0
 79
     0
146
0.0
 60
     3
 61
     5
292
     1
282
     1
141
0.0
142
0.0
 63
   250
  0
ENDTAB
  0
TABLE
  2
LTYPE
  5
5
330
0
100
AcDbSymbolTable
 70
     3
  0
LTYPE
  5
14
330
5
100
AcDbSymbolTableRecord
100
AcDbLinetypeTableRecord
  2
ByBlock
 70
     0
  3

 72
    65
 73
     0
 40
0.0
  0
LTYPE
  5
15
330
5
100
AcDbSymbolTableRecord
100
AcDbLinetypeTableRecord
  2
ByLayer
 70
     0
  3

 72
    65
 73
     0
 40
0.0
  0
LTYPE
  5
16
330
5
100
AcDbSymbolTableRecord
100
AcDbLinetypeTableRecord
  2
Continuous
 70
     0
  3
Solid line
 72
    65
 73
     0
 40
0.0
  0
LTYPE
  5
3F
330
5
100
AcDbSymbolTableRecord
100
AcDbLinetypeTableRecord
  2
JWW_HOJO
 70
     0
  3
  -   -   -   -   -   -   -   - 
 72
    65
 73
     2
 40
1.693333333333333
 49
-1.27
 74
     0
 49
0.4233333333333333
 74
     0
  0
LTYPE
  5
40
330
5
100
AcDbSymbolTableRecord
100
AcDbLinetypeTableRecord
  2
JWW_DASHED1
 70
     0
  3
-  --  --  --  --  --  --  --  -
 72
    65
 73
     2
 40
1.693333333333333
 49
0.8466666666666667
 74
     0
 49
-0.8466666666666667
 74
     0
  0
ENDTAB
  0
TABLE
  2
LAYER
  5
2
330
0
100
AcDbSymbolTable
 70
     9
  0
LAYER
  5
10
330
2
100
AcDbSymbolTableRecord
100
AcDbLayerTableRecord
  2
0
 70
     0
 62
     7
  6
Continuous
370
    -3
390
F
347
3E
  0
LAYER
  5
41
330
2
100
AcDbSymbolTableRecord
100
AcDbLayerTableRecord
  2
F-1
 70
     0
 62
     7
  6
Continuous
370
    -3
390
F
347
3E
  0
LAYER
  5
42
330
2
100
AcDbSymbolTableRecord
100
AcDbLayerTableRecord
  2
F-0
 70
     0
 62
     7
  6
Continuous
370
    -3
390
F
347
3E
  0
LAYER
  5
43
330
2
100
AcDbSymbolTableRecord
100
AcDbLayerTableRecord
  2
F-A
 70
     0
 62
     7
  6
Continuous
370
    -3
390
F
347
3E
  0
LAYER
  5
44
330
2
100
AcDbSymbolTableRecord
100
AcDbLayerTableRecord
  2
0-B
 70
     0
 62
     7
  6
Continuous
370
    -3
390
F
347
3E
  0
LAYER
  5
45
330
2
100
AcDbSymbolTableRecord
100
AcDbLayerTableRecord
  2
0-4
 70
     0
 62
     7
  6
Continuous
370
    -3
390
F
347
3E
  0
LAYER
  5
46
330
2
100
AcDbSymbolTableRecord
100
AcDbLayerTableRecord
  2
0-0
 70
     0
 62
     7
  6
Continuous
370
    -3
390
F
347
3E
  0
LAYER
  5
47
330
2
100
AcDbSymbolTableRecord
100
AcDbLayerTableRecord
  2
0-7
 70
     0
 62
     7
  6
Continuous
370
    -3
390
F
347
3E
  0
LAYER
  5
48
330
2
100
AcDbSymbolTableRecord
100
AcDbLayerTableRecord
  2
0-A
 70
     0
 62
     7
  6
Continuous
370
    -3
390
F
347
3E
  0
ENDTAB
  0
TABLE
  2
STYLE
  5
3
330
0
100
AcDbSymbolTable
 70
     1
  0
STYLE
  5
11
330
3
100
AcDbSymbolTableRecord
100
AcDbTextStyleTableRecord
  2
Standard
 70
     0
 40
0.0
 41
1.0
 50
0.0
 71
     0
 42
2.5
  3
txt
  4

  0
ENDTAB
  0
TABLE
  2
VIEW
  5
6
330
0
100
AcDbSymbolTable
 70
     0
  0
ENDTAB
  0
TABLE
  2
UCS
  5
7
330
0
100
AcDbSymbolTable
 70
     0
  0
ENDTAB
  0
TABLE
  2
APPID
  5
9
330
0
100
AcDbSymbolTable
 70
     1
  0
APPID
  5
12
330
9
100
AcDbSymbolTableRecord
100
AcDbRegAppTableRecord
  2
ACAD
 70
     0
  0
ENDTAB
  0
TABLE
  2
DIMSTYLE
  5
A
330
0
100
AcDbSymbolTable
 70
     1
100
AcDbDimStyleTable
  0
DIMSTYLE
105
27
330
A
100
AcDbSymbolTableRecord
100
AcDbDimStyleTableRecord
  2
ISO-25
 70
     0
 41
2.5
 42
0.625
 43
3.75
 44
1.25
 73
     0
 74
     0
 77
     1
 78
     8
140
2.5
141
2.5
143
0.03937007874016
147
0.625
171
     3
172
     1
178
     0
271
     2
272
     2
274
     3
278
    44
283
     0
284
     8
340
11
  0
ENDTAB
  0
TABLE
  2
BLOCK_RECORD
  5
1
330
0
100
AcDbSymbolTable
 70
     1
  0
BLOCK_RECORD
  5
1F
330
1
100
AcDbSymbolTableRecord
100
AcDbBlockTableRecord
  2
*Model_Space
340
22
 70
     0
280
     1
281
     0
  0
BLOCK_RECORD
  5
1B
330
1
100
AcDbSymbolTableRecord
100
AcDbBlockTableRecord
  2
*Paper_Space
340
1E
 70
     0
280
     1
281
     0
  0
BLOCK_RECORD
  5
23
330
1
100
AcDbSymbolTableRecord
100
AcDbBlockTableRecord
  2
*Paper_Space0
340
26
 70
     0
280
     1
281
     0
  0
ENDTAB
  0
ENDSEC
  0
SECTION
  2
BLOCKS
  0
BLOCK
  5
20
330
1F
100
AcDbEntity
  8
0
100
AcDbBlockBegin
  2
*Model_Space
 70
     0
 10
0.0
 20
0.0
 30
0.0
  3
*Model_Space
  1

  0
ENDBLK
  5
21
330
1F
100
AcDbEntity
  8
0
100
AcDbBlockEnd
  0
BLOCK
  5
1C
330
1B
100
AcDbEntity
 67
     1
  8
0
100
AcDbBlockBegin
  2
*Paper_Space
 70
     0
 10
0.0
 20
0.0
 30
0.0
  3
*Paper_Space
  1

  0
ENDBLK
  5
1D
330
1B
100
AcDbEntity
 67
     1
  8
0
100
AcDbBlockEnd
  0
BLOCK
  5
24
330
23
100
AcDbEntity
  8
0
100
AcDbBlockBegin
  2
*Paper_Space0
 70
     0
 10
0.0
 20
0.0
 30
0.0
  3
*Paper_Space0
  1

  0
ENDBLK
  5
25
330
23
100
AcDbEntity
  8
0
100
AcDbBlockEnd
  0
ENDSEC
  0
SECTION
  2
ENTITIES
  0
LINE
  5
49
330
1F
100
AcDbEntity
  8
F-1
  6
Continuous
 62
     7
370
     9
100
AcDbLine
 10
-4940.000028867985
 20
4174.99960667378
 30
0.0
 11
-4940.000028867985
 21
-3790.000179909372
 31
0.0
  0
LINE
  5
4A
330
1F
100
AcDbEntity
  8
F-0
  6
JWW_HOJO
 62
   120
370
     5
100
AcDbLine
 10
-5989.99959584829
 20
3947.500379407728
 30
0.0
 11
5690.337474926098
 21
3947.500379407728
 31
0.0
  0
LINE
  5
4B
330
1F
100
AcDbEntity
  8
F-0
  6
JWW_HOJO
 62
   120
370
     5
100
AcDbLine
 10
-6300.0
 20
4424.999604096284
 30
0.0
 11
5999.999010240709
 21
4424.999604096284
 31
0.0
  0
LINE
  5
4C
330
1F
100
AcDbEntity
  8
F-0
  6
JWW_HOJO
 62
   120
370
     5
100
AcDbLine
 10
-6300.0
 20
-4455.0
 30
0.0
 11
-6300.0
 21
4424.999604096284
 31
0.0
  0
LINE
  5
4D
330
1F
100
AcDbEntity
  8
F-0
  6
JWW_HOJO
 62
   120
370
     5
100
AcDbLine
 10
5999.999010240709
 20
4424.999604096284
 30
0.0
 11
5999.999010240709
 21
-4455.0
 31
0.0
  0
LINE
  5
4E
330
1F
100
AcDbEntity
  8
F-0
  6
JWW_HOJO
 62
   120
370
     5
100
AcDbLine
 10
5999.999010240709
 20
-4455.0
 30
0.0
 11
-6300.0
 21
-4455.0
 31
0.0
  0
LINE
  5
4F
330
1F
100
AcDbEntity
  8
F-1
  6
Continuous
 62
   200
370
    20
100
AcDbLine
 10
-5999.999752560178
 20
4174.999769056166
 30
0.0
 11
5699.998762800888
 21
4174.999769056166
 31
0.0
  0
LINE
  5
50
330
1F
100
AcDbEntity
  8
F-1
  6
Continuous
 62
   200
370
    20
100
AcDbLine
 10
5699.998762800888
 20
4174.999769056166
 30
0.0
 11
5699.998762800888
 21
-4205.000164959882
 31
0.0
  0
LINE
  5
51
330
1F
100
AcDbEntity
  8
F-1
  6
Continuous
 62
   200
370
    20
100
AcDbLine
 10
-5999.99998453501
 20
4174.999769056166
 30
0.0
 11
-5999.99998453501
 21
-4205.000164959882
 31
0.0
  0
LINE
  5
52
330
1F
100
AcDbEntity
  8
F-1
  6
Continuous
 62
   200
370
    20
100
AcDbLine
 10
-5989.999990205507
 20
4174.999769056166
 30
0.0
 11
-5989.999990205507
 21
-4205.000164959882
 31
0.0
  0
LINE
  5
53
330
1F
100
AcDbEntity
  8
F-1
  6
Continuous
 62
   200
370
    20
100
AcDbLine
 10
-5999.999752560178
 20
4164.999983504013
 30
0.0
 11
5699.998762800888
 21
4164.999983504013
 31
0.0
  0
LINE
  5
54
330
1F
100
AcDbEntity
  8
F-1
  6
Continuous
 62
   200
370
    20
100
AcDbLine
 10
-5999.999752560178
 20
4169.999505120355
 30
0.0
 11
5699.998762800888
 21
4169.999505120355
 31
0.0
  0
LINE
  5
55
330
1F
100
AcDbEntity
  8
F-1
  6
Continuous
 62
   200
370
    20
100
AcDbLine
 10
-5994.999975771518
 20
4174.999769056166
 30
0.0
 11
-5994.999975771518
 21
-4205.000164959882
 31
0.0
  0
LINE
  5
56
330
1F
100
AcDbEntity
  8
F-1
  6
Continuous
 62
   200
370
    20
100
AcDbLine
 10
5694.998498865077
 20
4174.999769056166
 30
0.0
 11
5694.998498865077
 21
-4205.000164959882
 31
0.0
  0
LINE
  5
57
330
1F
100
AcDbEntity
  8
F-1
  6
Continuous
 62
   200
370
    20
100
AcDbLine
 10
5689.998977248734
 20
4174.999769056166
 30
0.0
 11
5689.998977248734
 21
-4205.000164959882
 31
0.0
  0
LINE
  5
58
330
1F
100
AcDbEntity
  8
F-1
  6
Continuous
 62
   200
370
    20
100
AcDbLine
 10
5699.998762800888
 20
3710.000461887669
 30
0.0
 11
-5999.999752560178
 21
3710.000461887669
 31
0.0
  0
LINE
  5
59
330
1F
100
AcDbEntity
  8
F-1
  6
Continuous
 62
     7
370
     9
100
AcDbLine
 10
-2405.000758815456
 20
3947.500379407728
 30
0.0
 11
-1505.000758815456
 21
3947.500379407728
 31
0.0
  0
LINE
  5
5A
330
1F
100
AcDbEntity
  8
F-1
  6
Continuous
 62
     7
370
     9
100
AcDbLine
 10
3439.999719568202
 20
3947.452128642314
 30
0.0
 11
4339.999719568202
 21
3947.452128642314
 31
0.0
  0
LINE
  5
5B
330
1F
100
AcDbEntity
  8
F-0
  6
JWW_HOJO
 62
     7
370
     9
100
AcDbLine
 10
-5839.999982473011
 20
4164.999983504013
 30
0.0
 11
-5839.999982473011
 21
-3785.470894478463
 31
0.0
  0
LINE
  5
5C
330
1F
100
AcDbEntity
  8
F-1
  6
Continuous
 62
   200
370
    20
100
AcDbLine
 10
5699.998762800888
 20
3720.000247440669
 30
0.0
 11
-5999.999752560178
 21
3720.000247440669
 31
0.0
  0
LINE
  5
5D
330
1F
100
AcDbEntity
  8
F-1
  6
JWW_HOJO
 62
     7
370
     9
100
AcDbLine
 10
4399.999719568196
 20
4174.99960667378
 30
0.0
 11
4399.999719568196
 21
-3795.048462635764
 31
0.0
  0
LINE
  5
5E
330
1F
100
AcDbEntity
  8
F-0
  6
JWW_HOJO
 62
   120
370
     5
100
AcDbLine
 10
2.499389648432384
 20
4164.999821121627
 30
0.0
 11
2.499389648432384
 21
-3790.08086075654
 31
0.0
  0
LINE
  5
5F
330
1F
100
AcDbEntity
  8
F-1
  6
Continuous
 62
   200
370
    20
100
AcDbLine
 10
-150.000866039384
 20
4174.99960667378
 30
0.0
 11
-150.000866039384
 21
-3795.000211870348
 31
0.0
  0
LINE
  5
60
330
1F
100
AcDbEntity
  8
F-1
  6
Continuous
 62
   200
370
    20
100
AcDbLine
 10
-145.0009732633075
 20
4175.047857439195
 30
0.0
 11
-145.0009732633075
 21
-3795.000211870348
 31
0.0
  0
LINE
  5
61
330
1F
100
AcDbEntity
  8
F-1
  6
Continuous
 62
   200
370
    20
100
AcDbLine
 10
-155.0007588154605
 20
4175.047857439195
 30
0.0
 11
-155.0007588154605
 21
-3795.000211870348
 31
0.0
  0
LINE
  5
62
330
1F
100
AcDbEntity
  8
F-1
  6
Continuous
 62
     7
370
     9
100
AcDbLine
 10
3439.999719568196
 20
4174.99960667378
 30
0.0
 11
3439.999719568196
 21
-3790.000179909372
 31
0.0
  0
LINE
  5
63
330
1F
100
AcDbEntity
  8
F-1
  6
Continuous
 62
     7
370
     9
100
AcDbLine
 10
-2405.000758815461
 20
4175.047857439195
 30
0.0
 11
-2405.000758815461
 21
-3795.000211870348
 31
0.0
  0
LINE
  5
64
330
1F
100
AcDbEntity
  8
F-1
  6
Continuous
 62
     7
370
     9
100
AcDbLine
 10
-1505.000758815461
 20
4175.047857439193
 30
0.0
 11
-1505.000758815461
 21
-3795.00021187035
 31
0.0
  0
LINE
  5
65
330
1F
100
AcDbEntity
  8
F-1
  6
JWW_HOJO
 62
     7
370
     9
100
AcDbLine
 10
-1445.000758815461
 20
4175.047857439193
 30
0.0
 11
-1445.000758815461
 21
-3795.00021187035
 31
0.0
  0
LINE
  5
66
330
1F
100
AcDbEntity
  8
F-1
  6
Continuous
 62
     7
370
     9
100
AcDbLine
 10
-635.0007588154606
 20
4175.047857439193
 30
0.0
 11
-635.0007588154606
 21
-3795.00021187035
 31
0.0
  0
LINE
  5
67
330
1F
100
AcDbEntity
  8
F-1
  6
Continuous
 62
     7
370
     9
100
AcDbLine
 10
4339.999719568196
 20
4174.99960667378
 30
0.0
 11
4339.999719568196
 21
-3795.048462635764
 31
0.0
  0
LINE
  5
68
330
1F
100
AcDbEntity
  8
F-1
  6
Continuous
 62
     7
370
     9
100
AcDbLine
 10
5209.999719568197
 20
4174.99960667378
 30
0.0
 11
5209.999719568197
 21
-3795.048462635764
 31
0.0
  0
LINE
  5
69
330
1F
100
AcDbEntity
  8
F-1
  6
JWW_DASHED1
 62
     7
370
     9
100
AcDbLine
 10
-2405.000758815461
 20
3531.428859519222
 30
0.0
 11
-155.0007588154605
 21
3531.428859519222
 31
0.0
  0
LINE
  5
6A
330
1F
100
AcDbEntity
  8
F-1
  6
JWW_DASHED1
 62
     7
370
     9
100
AcDbLine
 10
-2405.000758815461
 20
2817.143099574968
 30
0.0
 11
-155.0007588154605
 21
2817.143099574968
 31
0.0
  0
LINE
  5
6B
330
1F
100
AcDbEntity
  8
F-1
  6
JWW_DASHED1
 62
     7
370
     9
100
AcDbLine
 10
-2405.000758815461
 20
2995.714539561032
 30
0.0
 11
-155.0007588154605
 21
2995.714539561032
 31
0.0
  0
LINE
  5
6C
330
1F
100
AcDbEntity
  8
F-1
  6
JWW_DASHED1
 62
     7
370
     9
100
AcDbLine
 10
-2405.000758815461
 20
3174.285979547095
 30
0.0
 11
-155.0007588154605
 21
3174.285979547095
 31
0.0
  0
LINE
  5
6D
330
1F
100
AcDbEntity
  8
F-1
  6
JWW_DASHED1
 62
     7
370
     9
100
AcDbLine
 10
-2405.000758815461
 20
3352.857419533158
 30
0.0
 11
-155.0007588154605
 21
3352.857419533158
 31
0.0
  0
LINE
  5
6E
330
1F
100
AcDbEntity
  8
F-1
  6
JWW_DASHED1
 62
     7
370
     9
100
AcDbLine
 10
-2405.000758815461
 20
2460.000219602842
 30
0.0
 11
-155.0007588154605
 21
2460.000219602842
 31
0.0
  0
LINE
  5
6F
330
1F
100
AcDbEntity
  8
F-1
  6
JWW_DASHED1
 62
     7
370
     9
100
AcDbLine
 10
-2405.000758815461
 20
1745.714459658588
 30
0.0
 11
-155.0007588154605
 21
1745.714459658588
 31
0.0
  0
LINE
  5
70
330
1F
100
AcDbEntity
  8
F-1
  6
JWW_DASHED1
 62
     7
370
     9
100
AcDbLine
 10
-2405.000758815461
 20
1924.285899644653
 30
0.0
 11
-155.0007588154605
 21
1924.285899644653
 31
0.0
  0
LINE
  5
71
330
1F
100
AcDbEntity
  8
F-1
  6
JWW_DASHED1
 62
     7
370
     9
100
AcDbLine
 10
-2405.000758815461
 20
2102.857339630715
 30
0.0
 11
-155.0007588154605
 21
2102.857339630715
 31
0.0
  0
LINE
  5
72
330
1F
100
AcDbEntity
  8
F-1
  6
JWW_DASHED1
 62
     7
370
     9
100
AcDbLine
 10
-2405.000758815461
 20
2281.42877961678
 30
0.0
 11
-155.0007588154605
 21
2281.42877961678
 31
0.0
  0
LINE
  5
73
330
1F
100
AcDbEntity
  8
F-1
  6
JWW_DASHED1
 62
     7
370
     9
100
AcDbLine
 10
-2405.000758815461
 20
1388.571579686463
 30
0.0
 11
-155.0007588154605
 21
1388.571579686463
 31
0.0
  0
LINE
  5
74
330
1F
100
AcDbEntity
  8
F-1
  6
JWW_DASHED1
 62
     7
370
     9
100
AcDbLine
 10
-2405.000758815461
 20
674.2858197422092
 30
0.0
 11
-155.0007588154605
 21
674.2858197422092
 31
0.0
  0
LINE
  5
75
330
1F
100
AcDbEntity
  8
F-1
  6
JWW_DASHED1
 62
     7
370
     9
100
AcDbLine
 10
-2405.000758815461
 20
852.8572597282727
 30
0.0
 11
-155.0007588154605
 21
852.8572597282727
 31
0.0
  0
LINE
  5
76
330
1F
100
AcDbEntity
  8
F-1
  6
JWW_DASHED1
 62
     7
370
     9
100
AcDbLine
 10
-2405.000758815461
 20
1031.428699714336
 30
0.0
 11
-155.0007588154605
 21
1031.428699714336
 31
0.0
  0
LINE
  5
77
330
1F
100
AcDbEntity
  8
F-1
  6
JWW_DASHED1
 62
     7
370
     9
100
AcDbLine
 10
-2405.000758815461
 20
1210.0001397004
 30
0.0
 11
-155.0007588154605
 21
1210.0001397004
 31
0.0
  0
LINE
  5
78
330
1F
100
AcDbEntity
  8
F-1
  6
JWW_DASHED1
 62
     7
370
     9
100
AcDbLine
 10
-2405.000758815461
 20
317.142939770084
 30
0.0
 11
-155.0007588154605
 21
317.142939770084
 31
0.0
  0
LINE
  5
79
330
1F
100
AcDbEntity
  8
F-1
  6
JWW_DASHED1
 62
     7
370
     9
100
AcDbLine
 10
-2405.000758815461
 20
-397.1428201741708
 30
0.0
 11
-155.0007588154605
 21
-397.1428201741708
 31
0.0
  0
LINE
  5
7A
330
1F
100
AcDbEntity
  8
F-1
  6
JWW_DASHED1
 62
     7
370
     9
100
AcDbLine
 10
-2405.000758815461
 20
-218.5713801881064
 30
0.0
 11
-155.0007588154605
 21
-218.5713801881064
 31
0.0
  0
LINE
  5
7B
330
1F
100
AcDbEntity
  8
F-1
  6
JWW_DASHED1
 62
     7
370
     9
100
AcDbLine
 10
-2405.000758815461
 20
-39.99994020204383
 30
0.0
 11
-155.0007588154605
 21
-39.99994020204383
 31
0.0
  0
LINE
  5
7C
330
1F
100
AcDbEntity
  8
F-1
  6
JWW_DASHED1
 62
     7
370
     9
100
AcDbLine
 10
-2405.000758815461
 20
138.5714997840196
 30
0.0
 11
-155.0007588154605
 21
138.5714997840196
 31
0.0
  0
LINE
  5
7D
330
1F
100
AcDbEntity
  8
F-1
  6
JWW_DASHED1
 62
     7
370
     9
100
AcDbLine
 10
-2405.000758815461
 20
-754.285700146296
 30
0.0
 11
-155.0007588154605
 21
-754.285700146296
 31
0.0
  0
LINE
  5
7E
330
1F
100
AcDbEntity
  8
F-1
  6
JWW_DASHED1
 62
     7
370
     9
100
AcDbLine
 10
-2405.000758815461
 20
-1468.57146009055
 30
0.0
 11
-155.0007588154605
 21
-1468.57146009055
 31
0.0
  0
LINE
  5
7F
330
1F
100
AcDbEntity
  8
F-1
  6
JWW_DASHED1
 62
     7
370
     9
100
AcDbLine
 10
-2405.000758815461
 20
-1290.000020104486
 30
0.0
 11
-155.0007588154605
 21
-1290.000020104486
 31
0.0
  0
LINE
  5
80
330
1F
100
AcDbEntity
  8
F-1
  6
JWW_DASHED1
 62
     7
370
     9
100
AcDbLine
 10
-2405.000758815461
 20
-1111.428580118423
 30
0.0
 11
-155.0007588154605
 21
-1111.428580118423
 31
0.0
  0
LINE
  5
81
330
1F
100
AcDbEntity
  8
F-1
  6
JWW_DASHED1
 62
     7
370
     9
100
AcDbLine
 10
-2405.000758815461
 20
-932.8571401323595
 30
0.0
 11
-155.0007588154605
 21
-932.8571401323595
 31
0.0
  0
LINE
  5
82
330
1F
100
AcDbEntity
  8
F-1
  6
JWW_DASHED1
 62
     7
370
     9
100
AcDbLine
 10
-2405.000758815461
 20
-1825.714340062675
 30
0.0
 11
-155.0007588154605
 21
-1825.714340062675
 31
0.0
  0
LINE
  5
83
330
1F
100
AcDbEntity
  8
F-1
  6
JWW_DASHED1
 62
     7
370
     9
100
AcDbLine
 10
-2405.000758815461
 20
-2540.000100006929
 30
0.0
 11
-155.0007588154605
 21
-2540.000100006929
 31
0.0
  0
LINE
  5
84
330
1F
100
AcDbEntity
  8
F-1
  6
JWW_DASHED1
 62
     7
370
     9
100
AcDbLine
 10
-2405.000758815461
 20
-2361.428660020866
 30
0.0
 11
-155.0007588154605
 21
-2361.428660020866
 31
0.0
  0
LINE
  5
85
330
1F
100
AcDbEntity
  8
F-1
  6
JWW_DASHED1
 62
     7
370
     9
100
AcDbLine
 10
-2405.000758815461
 20
-2182.857220034802
 30
0.0
 11
-155.0007588154605
 21
-2182.857220034802
 31
0.0
  0
LINE
  5
86
330
1F
100
AcDbEntity
  8
F-1
  6
JWW_DASHED1
 62
     7
370
     9
100
AcDbLine
 10
-2405.000758815461
 20
-2004.285780048739
 30
0.0
 11
-155.0007588154605
 21
-2004.285780048739
 31
0.0
  0
LINE
  5
87
330
1F
100
AcDbEntity
  8
F-1
  6
JWW_DASHED1
 62
     7
370
     9
100
AcDbLine
 10
-2405.000758815461
 20
-2897.142979979054
 30
0.0
 11
-155.0007588154605
 21
-2897.142979979054
 31
0.0
  0
LINE
  5
88
330
1F
100
AcDbEntity
  8
F-1
  6
JWW_DASHED1
 62
     7
370
     9
100
AcDbLine
 10
-2405.000758815461
 20
-3611.428739923308
 30
0.0
 11
-155.0007588154605
 21
-3611.428739923308
 31
0.0
  0
LINE
  5
89
330
1F
100
AcDbEntity
  8
F-1
  6
JWW_DASHED1
 62
     7
370
     9
100
AcDbLine
 10
-2405.000758815461
 20
-3432.857299937245
 30
0.0
 11
-155.0007588154605
 21
-3432.857299937245
 31
0.0
  0
LINE
  5
8A
330
1F
100
AcDbEntity
  8
F-1
  6
JWW_DASHED1
 62
     7
370
     9
100
AcDbLine
 10
-2405.000758815461
 20
-3254.285859951181
 30
0.0
 11
-155.0007588154605
 21
-3254.285859951181
 31
0.0
  0
LINE
  5
8B
330
1F
100
AcDbEntity
  8
F-1
  6
JWW_DASHED1
 62
     7
370
     9
100
AcDbLine
 10
-2405.000758815461
 20
-3075.714419965117
 30
0.0
 11
-155.0007588154605
 21
-3075.714419965117
 31
0.0
  0
LINE
  5
8C
330
1F
100
AcDbEntity
  8
F-1
  6
JWW_DASHED1
 62
     7
370
     9
100
AcDbLine
 10
3439.999719568196
 20
3531.428859519222
 30
0.0
 11
5689.999719568197
 21
3531.428859519222
 31
0.0
  0
LINE
  5
8D
330
1F
100
AcDbEntity
  8
F-1
  6
JWW_DASHED1
 62
     7
370
     9
100
AcDbLine
 10
3439.999719568196
 20
2817.143099574968
 30
0.0
 11
5689.999719568197
 21
2817.143099574968
 31
0.0
  0
LINE
  5
8E
330
1F
100
AcDbEntity
  8
F-1
  6
JWW_DASHED1
 62
     7
370
     9
100
AcDbLine
 10
3439.999719568196
 20
2995.714539561032
 30
0.0
 11
5689.999719568197
 21
2995.714539561032
 31
0.0
  0
LINE
  5
8F
330
1F
100
AcDbEntity
  8
F-1
  6
JWW_DASHED1
 62
     7
370
     9
100
AcDbLine
 10
3439.999719568196
 20
3174.285979547095
 30
0.0
 11
5689.999719568197
 21
3174.285979547095
 31
0.0
  0
LINE
  5
90
330
1F
100
AcDbEntity
  8
F-1
  6
JWW_DASHED1
 62
     7
370
     9
100
AcDbLine
 10
3439.999719568196
 20
3352.857419533158
 30
0.0
 11
5689.999719568197
 21
3352.857419533158
 31
0.0
  0
LINE
  5
91
330
1F
100
AcDbEntity
  8
F-1
  6
JWW_DASHED1
 62
     7
370
     9
100
AcDbLine
 10
3439.999719568196
 20
2460.000219602842
 30
0.0
 11
5689.999719568197
 21
2460.000219602842
 31
0.0
  0
LINE
  5
92
330
1F
100
AcDbEntity
  8
F-1
  6
JWW_DASHED1
 62
     7
370
     9
100
AcDbLine
 10
3439.999719568196
 20
1745.714459658588
 30
0.0
 11
5689.999719568197
 21
1745.714459658588
 31
0.0
  0
LINE
  5
93
330
1F
100
AcDbEntity
  8
F-1
  6
JWW_DASHED1
 62
     7
370
     9
100
AcDbLine
 10
3439.999719568196
 20
1924.285899644653
 30
0.0
 11
5689.999719568197
 21
1924.285899644653
 31
0.0
  0
LINE
  5
94
330
1F
100
AcDbEntity
  8
F-1
  6
JWW_DASHED1
 62
     7
370
     9
100
AcDbLine
 10
3439.999719568196
 20
2102.857339630715
 30
0.0
 11
5689.999719568197
 21
2102.857339630715
 31
0.0
  0
LINE
  5
95
330
1F
100
AcDbEntity
  8
F-1
  6
JWW_DASHED1
 62
     7
370
     9
100
AcDbLine
 10
3439.999719568196
 20
2281.42877961678
 30
0.0
 11
5689.999719568197
 21
2281.42877961678
 31
0.0
  0
LINE
  5
96
330
1F
100
AcDbEntity
  8
F-1
  6
JWW_DASHED1
 62
     7
370
     9
100
AcDbLine
 10
3439.999719568196
 20
1388.571579686463
 30
0.0
 11
5689.999719568197
 21
1388.571579686463
 31
0.0
  0
LINE
  5
97
330
1F
100
AcDbEntity
  8
F-1
  6
JWW_DASHED1
 62
     7
370
     9
100
AcDbLine
 10
3439.999719568196
 20
674.2858197422092
 30
0.0
 11
5689.999719568197
 21
674.2858197422092
 31
0.0
  0
LINE
  5
98
330
1F
100
AcDbEntity
  8
F-1
  6
JWW_DASHED1
 62
     7
370
     9
100
AcDbLine
 10
3439.999719568196
 20
852.8572597282727
 30
0.0
 11
5689.999719568197
 21
852.8572597282727
 31
0.0
  0
LINE
  5
99
330
1F
100
AcDbEntity
  8
F-1
  6
JWW_DASHED1
 62
     7
370
     9
100
AcDbLine
 10
3439.999719568196
 20
1031.428699714336
 30
0.0
 11
5689.999719568197
 21
1031.428699714336
 31
0.0
  0
LINE
  5
9A
330
1F
100
AcDbEntity
  8
F-1
  6
JWW_DASHED1
 62
     7
370
     9
100
AcDbLine
 10
3439.999719568196
 20
1210.0001397004
 30
0.0
 11
5689.999719568197
 21
1210.0001397004
 31
0.0
  0
LINE
  5
9B
330
1F
100
AcDbEntity
  8
F-1
  6
JWW_DASHED1
 62
     7
370
     9
100
AcDbLine
 10
3439.999719568196
 20
317.142939770084
 30
0.0
 11
5689.999719568197
 21
317.142939770084
 31
0.0
  0
LINE
  5
9C
330
1F
100
AcDbEntity
  8
F-1
  6
JWW_DASHED1
 62
     7
370
     9
100
AcDbLine
 10
3439.999719568196
 20
-397.1428201741708
 30
0.0
 11
5689.999719568197
 21
-397.1428201741708
 31
0.0
  0
LINE
  5
9D
330
1F
100
AcDbEntity
  8
F-1
  6
JWW_DASHED1
 62
     7
370
     9
100
AcDbLine
 10
3439.999719568196
 20
-218.5713801881064
 30
0.0
 11
5689.999719568197
 21
-218.5713801881064
 31
0.0
  0
LINE
  5
9E
330
1F
100
AcDbEntity
  8
F-1
  6
JWW_DASHED1
 62
     7
370
     9
100
AcDbLine
 10
3439.999719568196
 20
-39.99994020204383
 30
0.0
 11
5689.999719568197
 21
-39.99994020204383
 31
0.0
  0
LINE
  5
9F
330
1F
100
AcDbEntity
  8
F-1
  6
JWW_DASHED1
 62
     7
370
     9
100
AcDbLine
 10
3439.999719568196
 20
138.5714997840196
 30
0.0
 11
5689.999719568197
 21
138.5714997840196
 31
0.0
  0
LINE
  5
A0
330
1F
100
AcDbEntity
  8
F-1
  6
JWW_DASHED1
 62
     7
370
     9
100
AcDbLine
 10
3439.999719568196
 20
-1468.57146009055
 30
0.0
 11
5689.999719568197
 21
-1468.57146009055
 31
0.0
  0
LINE
  5
A1
330
1F
100
AcDbEntity
  8
F-1
  6
JWW_DASHED1
 62
     7
370
     9
100
AcDbLine
 10
3439.999719568196
 20
-1290.000020104486
 30
0.0
 11
5689.999719568197
 21
-1290.000020104486
 31
0.0
  0
LINE
  5
A2
330
1F
100
AcDbEntity
  8
F-1
  6
JWW_DASHED1
 62
     7
370
     9
100
AcDbLine
 10
3439.999719568196
 20
-1111.428580118423
 30
0.0
 11
5689.999719568197
 21
-1111.428580118423
 31
0.0
  0
LINE
  5
A3
330
1F
100
AcDbEntity
  8
F-1
  6
JWW_DASHED1
 62
     7
370
     9
100
AcDbLine
 10
3439.999719568196
 20
-932.8571401323595
 30
0.0
 11
5689.999719568197
 21
-932.8571401323595
 31
0.0
  0
LINE
  5
A4
330
1F
100
AcDbEntity
  8
F-1
  6
JWW_DASHED1
 62
     7
370
     9
100
AcDbLine
 10
3439.999719568196
 20
-3611.428739923308
 30
0.0
 11
5689.999719568197
 21
-3611.428739923308
 31
0.0
  0
LINE
  5
A5
330
1F
100
AcDbEntity
  8
F-1
  6
JWW_DASHED1
 62
     7
370
     9
100
AcDbLine
 10
3439.999719568196
 20
-3432.857299937245
 30
0.0
 11
5689.999719568197
 21
-3432.857299937245
 31
0.0
  0
LINE
  5
A6
330
1F
100
AcDbEntity
  8
F-1
  6
JWW_DASHED1
 62
     7
370
     9
100
AcDbLine
 10
3439.999719568196
 20
-3254.285859951181
 30
0.0
 11
5689.999719568197
 21
-3254.285859951181
 31
0.0
  0
LINE
  5
A7
330
1F
100
AcDbEntity
  8
F-1
  6
JWW_DASHED1
 62
     7
370
     9
100
AcDbLine
 10
3439.999719568196
 20
-1825.714340062675
 30
0.0
 11
5689.999719568197
 21
-1825.714340062675
 31
0.0
  0
LINE
  5
A8
330
1F
100
AcDbEntity
  8
F-1
  6
JWW_DASHED1
 62
     7
370
     9
100
AcDbLine
 10
3439.999719568196
 20
-2540.000100006929
 30
0.0
 11
5689.999719568197
 21
-2540.000100006929
 31
0.0
  0
LINE
  5
A9
330
1F
100
AcDbEntity
  8
F-1
  6
JWW_DASHED1
 62
     7
370
     9
100
AcDbLine
 10
3439.999719568196
 20
-2361.428660020866
 30
0.0
 11
5689.999719568197
 21
-2361.428660020866
 31
0.0
  0
LINE
  5
AA
330
1F
100
AcDbEntity
  8
F-1
  6
JWW_DASHED1
 62
     7
370
     9
100
AcDbLine
 10
3439.999719568196
 20
-2182.857220034802
 30
0.0
 11
5689.999719568197
 21
-2182.857220034802
 31
0.0
  0
LINE
  5
AB
330
1F
100
AcDbEntity
  8
F-1
  6
JWW_DASHED1
 62
     7
370
     9
100
AcDbLine
 10
3439.999719568196
 20
-2004.285780048739
 30
0.0
 11
5689.999719568197
 21
-2004.285780048739
 31
0.0
  0
LINE
  5
AC
330
1F
100
AcDbEntity
  8
F-1
  6
JWW_DASHED1
 62
     7
370
     9
100
AcDbLine
 10
3439.999719568196
 20
-2897.142979979054
 30
0.0
 11
5689.999719568197
 21
-2897.142979979054
 31
0.0
  0
LINE
  5
AD
330
1F
100
AcDbEntity
  8
F-1
  6
JWW_DASHED1
 62
     7
370
     9
100
AcDbLine
 10
3439.999719568196
 20
-3075.714419965117
 30
0.0
 11
5689.999719568197
 21
-3075.714419965117
 31
0.0
  0
LINE
  5
AE
330
1F
100
AcDbEntity
  8
F-1
  6
JWW_DASHED1
 62
     7
370
     9
100
AcDbLine
 10
-4730.000028867985
 20
2638.571659588903
 30
0.0
 11
-155.0007588154605
 21
2638.571659588903
 31
0.0
  0
LINE
  5
AF
330
1F
100
AcDbEntity
  8
F-0
  6
JWW_HOJO
 62
   120
370
     5
100
AcDbLine
 10
-3567.500393841724
 20
-3790.000179909372
 30
0.0
 11
-3567.500393841724
 21
3710.000461887669
 31
0.0
  0
LINE
  5
B0
330
1F
100
AcDbEntity
  8
F-1
  6
Continuous
 62
     7
370
     9
100
AcDbLine
 10
-4940.000028867985
 20
1567.143019672526
 30
0.0
 11
-155.0007588154605
 21
1567.143019672526
 31
0.0
  0
LINE
  5
B1
330
1F
100
AcDbEntity
  8
F-1
  6
JWW_DASHED1
 62
     7
370
     9
100
AcDbLine
 10
-2405.000758815461
 20
-1647.142900076613
 30
0.0
 11
-155.0007588154605
 21
-1647.142900076613
 31
0.0
  0
LINE
  5
B2
330
1F
100
AcDbEntity
  8
F-1
  6
JWW_DASHED1
 62
     7
370
     9
100
AcDbLine
 10
-2405.000758815461
 20
-2718.571539992992
 30
0.0
 11
-155.0007588154605
 21
-2718.571539992992
 31
0.0
  0
LINE
  5
B3
330
1F
100
AcDbEntity
  8
F-0
  6
JWW_HOJO
 62
   120
370
     5
100
AcDbLine
 10
2172.499620592267
 20
-3790.000179909372
 30
0.0
 11
2172.499620592267
 21
3710.000461887669
 31
0.0
  0
LINE
  5
B4
330
1F
100
AcDbEntity
  8
F-0
  6
JWW_HOJO
 62
     7
370
     9
100
AcDbLine
 10
849.9995876002961
 20
-3795.000003092998
 30
0.0
 11
849.9995876002961
 21
-4195.000008247994
 31
0.0
  0
LINE
  5
B5
330
1F
100
AcDbEntity
  8
F-0
  6
JWW_HOJO
 62
     7
370
     9
100
AcDbLine
 10
349.9999175200594
 20
-3795.000003092998
 30
0.0
 11
349.9999175200594
 21
-4195.000008247994
 31
0.0
  0
LINE
  5
B6
330
1F
100
AcDbEntity
  8
F-1
  6
Continuous
 62
   200
370
    20
100
AcDbLine
 10
5699.998762800888
 20
-4205.000002577498
 30
0.0
 11
-5999.999752560178
 21
-4205.000002577498
 31
0.0
  0
LINE
  5
B7
330
1F
100
AcDbEntity
  8
F-1
  6
Continuous
 62
   200
370
    20
100
AcDbLine
 10
5699.998762800888
 20
-4199.999993814004
 30
0.0
 11
-5999.999752560178
 21
-4199.999993814004
 31
0.0
  0
LINE
  5
B8
330
1F
100
AcDbEntity
  8
F-1
  6
Continuous
 62
   200
370
    20
100
AcDbLine
 10
5699.998762800888
 20
-4195.000008247994
 30
0.0
 11
-5999.999752560178
 21
-4195.000008247994
 31
0.0
  0
LINE
  5
B9
330
1F
100
AcDbEntity
  8
F-1
  6
Continuous
 62
   200
370
    20
100
AcDbLine
 10
4189.999224688556
 20
-3795.000003092998
 30
0.0
 11
4189.999224688556
 21
-4195.000008247994
 31
0.0
  0
LINE
  5
BA
330
1F
100
AcDbEntity
  8
F-1
  6
Continuous
 62
   200
370
    20
100
AcDbLine
 10
2689.998729808911
 20
-3795.000003092998
 30
0.0
 11
2689.998729808911
 21
-4195.000008247994
 31
0.0
  0
LINE
  5
BB
330
1F
100
AcDbEntity
  8
F-1
  6
Continuous
 62
   200
370
    20
100
AcDbLine
 10
-150.0001237199109
 20
-3795.000003092998
 30
0.0
 11
-150.0001237199109
 21
-4195.000008247994
 31
0.0
  0
LINE
  5
BC
330
1F
100
AcDbEntity
  8
F-1
  6
Continuous
 62
   200
370
    20
100
AcDbLine
 10
-150.0001237199109
 20
-3994.999936078046
 30
0.0
 11
5689.998977248734
 21
-3995.005364289155
 31
0.0
  0
LINE
  5
BD
330
1F
100
AcDbEntity
  8
F-0
  6
JWW_HOJO
 62
     7
370
     9
100
AcDbLine
 10
-5989.999990205507
 20
-3994.99993607839
 30
0.0
 11
-150.0001237199109
 21
-3994.99993607839
 31
0.0
  0
LINE
  5
BE
330
1F
100
AcDbEntity
  8
F-0
  6
JWW_HOJO
 62
     7
370
     9
100
AcDbLine
 10
-5989.999990205507
 20
-3904.99993607839
 30
0.0
 11
-150.0001237199109
 21
-3904.99993607839
 31
0.0
  0
LINE
  5
BF
330
1F
100
AcDbEntity
  8
F-0
  6
JWW_HOJO
 62
     7
370
     9
100
AcDbLine
 10
-5989.999990205507
 20
-4084.99993607839
 30
0.0
 11
-150.0001237199109
 21
-4084.99993607839
 31
0.0
  0
LINE
  5
C0
330
1F
100
AcDbEntity
  8
F-0
  6
JWW_HOJO
 62
     7
370
     9
100
AcDbLine
 10
-150.0002584955388
 20
-4139.999739777983
 30
0.0
 11
5689.998842473105
 21
-4140.005167989091
 31
0.0
  0
LINE
  5
C1
330
1F
100
AcDbEntity
  8
F-0
  6
JWW_HOJO
 62
     7
370
     9
100
AcDbLine
 10
-150.0001748415872
 20
-4049.999739778022
 30
0.0
 11
5689.998926127057
 21
-4050.005167989131
 31
0.0
  0
LINE
  5
C2
330
1F
100
AcDbEntity
  8
F-0
  6
JWW_HOJO
 62
     7
370
     9
100
AcDbLine
 10
-150.0000725978671
 20
-3939.99973721807
 30
0.0
 11
5689.999028370777
 21
-3940.005165429179
 31
0.0
  0
LINE
  5
C3
330
1F
100
AcDbEntity
  8
F-0
  6
JWW_HOJO
 62
     7
370
     9
100
AcDbLine
 10
-149.9999889439155
 20
-3849.999737218109
 30
0.0
 11
5689.999112024728
 21
-3850.005165429218
 31
0.0
  0
LINE
  5
C4
330
1F
100
AcDbEntity
  8
F-0
  6
JWW_HOJO
 62
     7
370
     9
100
AcDbLine
 10
2779.998729808911
 20
-3795.000003092998
 30
0.0
 11
2779.998729808911
 21
-4195.000008247994
 31
0.0
  0
LINE
  5
C5
330
1F
100
AcDbEntity
  8
F-0
  6
JWW_HOJO
 62
     7
370
     9
100
AcDbLine
 10
-60.0001237199109
 20
-3795.000003092998
 30
0.0
 11
-60.0001237199109
 21
-4195.000008247994
 31
0.0
  0
LINE
  5
C6
330
1F
100
AcDbEntity
  8
F-0
  6
JWW_HOJO
 62
     7
370
     9
100
AcDbLine
 10
4279.999224688556
 20
-3795.000003092998
 30
0.0
 11
4279.999224688556
 21
-4195.000008247994
 31
0.0
  0
LINE
  5
C7
330
1F
100
AcDbEntity
  8
F-1
  6
Continuous
 62
   200
370
    20
100
AcDbLine
 10
5699.998762800888
 20
-3795.000003092998
 30
0.0
 11
-5999.999752560178
 21
-3795.000003092998
 31
0.0
  0
LINE
  5
C8
330
1F
100
AcDbEntity
  8
F-1
  6
Continuous
 62
   200
370
    20
100
AcDbLine
 10
5699.998762800888
 20
-3790.000017526987
 30
0.0
 11
-5999.999752560178
 21
-3790.000017526987
 31
0.0
  0
LINE
  5
C9
330
1F
100
AcDbEntity
  8
F-0
  6
JWW_HOJO
 62
     7
370
     9
100
AcDbLine
 10
-5247.547376752838
 20
-3795.000003092999
 30
0.0
 11
-5247.547376752838
 21
-4205.000164959882
 31
0.0
  0
LINE
  5
CA
330
1F
100
AcDbEntity
  8
F-0
  6
JWW_HOJO
 62
     7
370
     9
100
AcDbLine
 10
-210.0001237199109
 20
-3795.000003092998
 30
0.0
 11
-210.0001237199109
 21
-4195.000008247994
 31
0.0
  0
MTEXT
  5
CB
330
1F
100
AcDbEntity
  8
F-1
  6
Continuous
 62
     7
370
     0
100
AcDbMText
 10
-2082.500758815456
 20
3984.827681455869
 30
0.0
 40
97.15499999999999
 41
255.0
 46
0.0
 71
     7
 72
     1
  1
{\fＭＳ ゴシック|b0|i0|c128|p49;寸法}
 73
     1
 44
1.0
  0
MTEXT
  5
CC
330
1F
100
AcDbEntity
  8
F-1
  6
Continuous
 62
     7
370
     0
100
AcDbMText
 10
-522.5007588154554
 20
3984.827681455869
 30
0.0
 40
97.15499999999999
 41
255.0
 46
0.0
 71
     7
 72
     1
  1
{\fＭＳ ゴシック|b0|i0|c128|p49;発注}
 73
     1
 44
1.0
  0
MTEXT
  5
CD
330
1F
100
AcDbEntity
  8
F-1
  6
Continuous
 62
     7
370
     0
100
AcDbMText
 10
3762.499719568202
 20
3984.779430690454
 30
0.0
 40
97.15499999999999
 41
255.0
 46
0.0
 71
     7
 72
     1
  1
{\fＭＳ ゴシック|b0|i0|c128|p49;寸法}
 73
     1
 44
1.0
  0
MTEXT
  5
CE
330
1F
100
AcDbEntity
  8
F-1
  6
Continuous
 62
     7
370
     0
100
AcDbMText
 10
5322.499719568203
 20
3984.779430690454
 30
0.0
 40
97.15499999999999
 41
255.0
 46
0.0
 71
     7
 72
     1
  1
{\fＭＳ ゴシック|b0|i0|c128|p49;発注}
 73
     1
 44
1.0
  0
MTEXT
  5
CF
330
1F
100
AcDbEntity
  8
F-1
  6
Continuous
 62
     7
370
     0
100
AcDbMText
 10
-1197.500758815456
 20
3876.077879407728
 30
0.0
 40
97.15499999999999
 41
255.0
 46
0.0
 71
     7
 72
     1
  1
{\fＭＳ ゴシック|b0|i0|c128|p49;品番}
 73
     1
 44
1.0
  0
MTEXT
  5
D0
330
1F
100
AcDbEntity
  8
F-1
  6
Continuous
 62
     7
370
     0
100
AcDbMText
 10
4647.499719568202
 20
3876.029628642314
 30
0.0
 40
97.15499999999999
 41
255.0
 46
0.0
 71
     7
 72
     1
  1
{\fＭＳ ゴシック|b0|i0|c128|p49;品番}
 73
     1
 44
1.0
  0
MTEXT
  5
D1
330
1F
100
AcDbEntity
  8
F-1
  6
Continuous
 62
     7
370
     0
100
AcDbMText
 10
-2360.000758815456
 20
3753.040577359584
 30
0.0
 40
68.58
 41
810.0
 46
0.0
 71
     7
 72
     1
  1
{\fＭＳ ゴシック|b0|i0|c128|p49;長さ×幅×厚さ(㎜)}
 73
     1
 44
1.0
  0
MTEXT
  5
D2
330
1F
100
AcDbEntity
  8
F-1
  6
Continuous
 62
     7
370
     0
100
AcDbMText
 10
-522.5007588154554
 20
3767.328077359584
 30
0.0
 40
97.15499999999999
 41
255.0
 46
0.0
 71
     7
 72
     1
  1
{\fＭＳ ゴシック|b0|i0|c128|p49;単位}
 73
     1
 44
1.0
  0
MTEXT
  5
D3
330
1F
100
AcDbEntity
  8
F-1
  6
Continuous
 62
     7
370
     0
100
AcDbMText
 10
3484.999719568202
 20
3753.040577359584
 30
0.0
 40
68.58
 41
810.0
 46
0.0
 71
     7
 72
     1
  1
{\fＭＳ ゴシック|b0|i0|c128|p49;長さ×幅×厚さ(㎜)}
 73
     1
 44
1.0
  0
MTEXT
  5
D4
330
1F
100
AcDbEntity
  8
F-1
  6
Continuous
 62
     7
370
     0
100
AcDbMText
 10
5322.499719568203
 20
3767.27982659417
 30
0.0
 40
97.15499999999999
 41
255.0
 46
0.0
 71
     7
 72
     1
  1
{\fＭＳ ゴシック|b0|i0|c128|p49;単位}
 73
     1
 44
1.0
  0
MTEXT
  5
D5
330
1F
100
AcDbEntity
  8
F-A
  6
Continuous
 62
     7
370
     0
100
AcDbMText
 10
-5659.999812358134
 20
3877.030379407729
 30
0.0
 40
99.06
 41
390.0
 46
0.0
 71
     7
 72
     1
  1
{\fＭＳ ゴシック|b0|i0|c128|p49;部材名}
 73
     1
 44
1.0
  0
MTEXT
  5
D6
330
1F
100
AcDbEntity
  8
F-A
  6
Continuous
 62
     7
370
     0
100
AcDbMText
 10
179.9993814004438
 20
3877.030379407729
 30
0.0
 40
99.06
 41
390.0
 46
0.0
 71
     7
 72
     1
  1
{\fＭＳ ゴシック|b0|i0|c128|p49;部材名}
 73
     1
 44
1.0
  0
MTEXT
  5
D7
330
1F
100
AcDbEntity
  8
F-A
  6
Continuous
 62
     7
370
     0
100
AcDbMText
 10
-3935.000393841724
 20
3877.50643145587
 30
0.0
 40
100.0125
 41
525.0
 46
0.0
 71
     7
 72
     1
  1
{\fＭＳ ゴシック|b0|i0|c128|p49;断面形状}
 73
     1
 44
1.0
  0
MTEXT
  5
D8
330
1F
100
AcDbEntity
  8
F-A
  6
Continuous
 62
     7
370
     0
100
AcDbMText
 10
1909.999991752006
 20
3877.50643145587
 30
0.0
 40
100.0125
 41
525.0
 46
0.0
 71
     7
 72
     1
  1
{\fＭＳ ゴシック|b0|i0|c128|p49;断面形状}
 73
     1
 44
1.0
  0
MTEXT
  5
D9
330
1F
100
AcDbEntity
  8
F-A
  6
Continuous
 62
     7
370
     0
100
AcDbMText
 10
-60.0001237199109
 20
-3887.139820871936
 30
0.0
 40
45.72
 41
180.0
 46
0.0
 71
     7
 72
     1
  1
{\fＭＳ ゴシック|b0|i0|c128|p49;図面名}
 73
     1
 44
1.0
  0
MTEXT
  5
DA
330
1F
100
AcDbEntity
  8
F-A
  6
Continuous
 62
     7
370
     0
100
AcDbMText
 10
2779.998729808911
 20
-3887.142460617774
 30
0.0
 40
45.72
 41
300.0
 46
0.0
 71
     7
 72
     1
  1
{\fＭＳ ゴシック|b0|i0|c128|p49;ＳＣＡＬＥ}
 73
     1
 44
1.0
  0
MTEXT
  5
DB
330
1F
100
AcDbEntity
  8
F-A
  6
Continuous
 62
     7
370
     0
100
AcDbMText
 10
4279.999224688556
 20
-3887.143854850754
 30
0.0
 40
45.72
 41
240.0
 46
0.0
 71
     7
 72
     1
  1
{\fＭＳ ゴシック|b0|i0|c128|p49;ＤＡＴＥ}
 73
     1
 44
1.0
  0
MTEXT
  5
DC
330
1F
100
AcDbEntity
  8
F-A
  6
Continuous
 62
     7
370
     0
100
AcDbMText
 10
1180.417701903716
 20
-3946.138161599839
 30
0.0
 40
77.724
 41
510.0
 46
0.0
 71
     7
 72
     1
  1
{\fＭＳ ゴシック|b0|i0|c128|p49;洋風造作材}
 73
     1
 44
1.0
  0
MTEXT
  5
DD
330
1F
100
AcDbEntity
  8
F-A
  6
Continuous
 62
     7
370
     0
100
AcDbMText
 10
3409.998977248734
 20
-3946.903115907308
 30
0.0
 40
76.19999999999999
 41
150.0
 46
0.0
 71
     7
 72
     1
  1
{\fＭＳ ゴシック|b0|i0|c128|p49;1/3}
 73
     1
 44
1.0
  0
MTEXT
  5
DE
330
1F
100
AcDbEntity
  8
F-A
  6
Continuous
 62
     7
370
     0
100
AcDbMText
 10
349.999917520056
 20
-3946.496666872502
 30
0.0
 40
78.58125
 41
412.5
 46
0.0
 71
     7
 72
     1
  1
{\fＭＳ ゴシック|b0|i0|c128|p49;DOORETUS}
 73
     1
 44
1.0
  0
MTEXT
  5
DF
330
1F
100
AcDbEntity
  8
F-A
  6
Continuous
 62
     7
370
     0
100
AcDbMText
 10
2779.998729808911
 20
-4087.14246317786
 30
0.0
 40
45.72
 41
240.0
 46
0.0
 71
     7
 72
     1
  1
{\fＭＳ ゴシック|b0|i0|c128|p49;ＦＩＬＥ}
 73
     1
 44
1.0
  0
MTEXT
  5
E0
330
1F
100
AcDbEntity
  8
F-A
  6
Continuous
 62
     7
370
     0
100
AcDbMText
 10
4279.999224688556
 20
-4087.143857410839
 30
0.0
 40
45.72
 41
180.0
 46
0.0
 71
     7
 72
     1
  1
{\fＭＳ ゴシック|b0|i0|c128|p49;ＮＯ．}
 73
     1
 44
1.0
  0
MTEXT
  5
E1
330
1F
100
AcDbEntity
  8
F-A
  6
Continuous
 62
     7
370
     0
100
AcDbMText
 10
1234.998729808911
 20
-4096.140669266149
 30
0.0
 40
45.72
 41
120.0
 46
0.0
 71
     7
 72
     1
  1
{\fＭＳ ゴシック|b0|i0|c128|p49;株式}
 73
     1
 44
1.0
  0
MTEXT
  5
E2
330
1F
100
AcDbEntity
  8
F-A
  6
Continuous
 62
     7
370
     0
100
AcDbMText
 10
1444.998729808911
 20
-4164.281754523929
 30
0.0
 40
101.44125
 41
1065.0
 46
0.0
 71
     7
 72
     1
  1
{\fＭＳ ゴシック|b0|i0|c128|p49;ウッドワン・・・}
 73
     1
 44
1.0
  0
MTEXT
  5
E3
330
1F
100
AcDbEntity
  8
F-A
  6
Continuous
 62
     7
370
     0
100
AcDbMText
 10
1234.998729808911
 20
-4168.140669266187
 30
0.0
 40
45.72
 41
120.0
 46
0.0
 71
     7
 72
     1
  1
{\fＭＳ ゴシック|b0|i0|c128|p49;会社}
 73
     1
 44
1.0
  0
MTEXT
  5
E4
330
1F
100
AcDbEntity
  8
F-A
  6
Continuous
 62
     7
370
     0
100
AcDbMText
 10
5608.403311109712
 20
-4314.841256638534
 30
0.0
 40
68.58
 41
90.0
 46
0.0
 71
     7
 72
     1
  1
{\fＭＳ ゴシック|b0|i0|c128|p49;）}
 73
     1
 44
1.0
  0
MTEXT
  5
E5
330
1F
100
AcDbEntity
  8
F-A
  6
Continuous
 62
     7
370
     0
100
AcDbMText
 10
5190.195950842071
 20
-4316.235281487472
 30
0.0
 40
68.58
 41
45.0
 46
0.0
 71
     7
 72
     1
  1
{\fＭＳ ゴシック|b0|i0|c128|p49;,}
 73
     1
 44
1.0
  0
MTEXT
  5
E6
330
1F
100
AcDbEntity
  8
F-A
  6
Continuous
 62
     7
370
     0
100
AcDbMText
 10
4923.937261915373
 20
-4314.771804905898
 30
0.0
 40
74.295
 41
97.5
 46
0.0
 71
     7
 72
     1
  1
{\fＭＳ ゴシック|b0|i0|c128|p49;$y}
 73
     1
 44
1.0
  0
MTEXT
  5
E7
330
1F
100
AcDbEntity
  8
F-A
  6
Continuous
 62
     7
370
     0
100
AcDbMText
 10
5078.673982954195
 20
-4314.771804905898
 30
0.0
 40
74.295
 41
97.5
 46
0.0
 71
     7
 72
     1
  1
{\fＭＳ ゴシック|b0|i0|c128|p49;$m}
 73
     1
 44
1.0
  0
MTEXT
  5
E8
330
1F
100
AcDbEntity
  8
F-A
  6
Continuous
 62
     7
370
     0
100
AcDbMText
 10
5233.410715437103
 20
-4314.771804905898
 30
0.0
 40
74.295
 41
97.5
 46
0.0
 71
     7
 72
     1
  1
{\fＭＳ ゴシック|b0|i0|c128|p49;$d}
 73
     1
 44
1.0
  0
MTEXT
  5
E9
330
1F
100
AcDbEntity
  8
F-A
  6
Continuous
 62
     7
370
     0
100
AcDbMText
 10
5388.147447920011
 20
-4314.771804905898
 30
0.0
 40
74.295
 41
195.0
 46
0.0
 71
     7
 72
     1
  1
{\fＭＳ ゴシック|b0|i0|c128|p49;印刷}
 73
     1
 44
1.0
  0
MTEXT
  5
EA
330
1F
100
AcDbEntity
  8
F-A
  6
Continuous
 62
     7
370
     0
100
AcDbMText
 10
4784.033374252999
 20
-4319.023331185347
 30
0.0
 40
68.58
 41
90.0
 46
0.0
 71
     7
 72
     1
  1
{\fＭＳ ゴシック|b0|i0|c128|p49;（}
 73
     1
 44
1.0
  0
MTEXT
  5
EB
330
1F
100
AcDbEntity
  8
F-A
  6
Continuous
 62
     7
370
     0
100
AcDbMText
 10
5031.277143812345
 20
-4319.023331185347
 30
0.0
 40
68.58
 41
45.0
 46
0.0
 71
     7
 72
     1
  1
{\fＭＳ ゴシック|b0|i0|c128|p49;,}
 73
     1
 44
1.0
  0
MTEXT
  5
EC
330
1F
100
AcDbEntity
  8
F-A
  6
Continuous
 62
     7
370
     9
100
AcDbMText
 10
4936.249033580831
 20
-4147.857012699985
 30
0.0
 40
74.295
 41
97.5
 46
0.0
 71
     7
 72
     1
  1
{\fＭＳ ゴシック|b0|i0|c128|p49;01}
 73
     1
 44
1.0
  0
MTEXT
  5
ED
330
1F
100
AcDbEntity
  8
F-A
  6
Continuous
 62
     7
370
     0
100
AcDbMText
 10
-5239.999990205507
 20
-4045.18866489195
 30
0.0
 40
79.62254237288136
 41
3082.5
 46
0.0
 71
     7
 72
     1
  1
{\fＭＳ ゴシック|b0|i0|c128|p49;ドレタス　洋風造作材　鴨居・敷居　２枚引き込み/３枚引き込み}
 73
     1
 44
1.0
  0
LINE
  5
EE
330
1F
100
AcDbEntity
  8
F-1
  6
Continuous
 62
     7
370
     9
100
AcDbLine
 10
-5989.999990205507
 20
-2718.571539992992
 30
0.0
 11
-155.0005732355933
 21
-2718.571539992992
 31
0.0
  0
MTEXT
  5
EF
330
1F
100
AcDbEntity
  8
0-B
  6
Continuous
 62
     7
370
   211
100
AcDbMText
 10
-3642.499929892056
 20
749.52886209672
 30
0.0
 40
76.19999999999999
 41
150.0
 46
0.0
 71
     7
 72
     1
  1
{\fＭＳ ゴシック|b0|i0|c128|p49;111}
 73
     1
 44
1.0
  0
LINE
  5
F0
330
1F
100
AcDbEntity
  8
0-B
  6
Continuous
 62
   120
370
     5
100
AcDbLine
 10
-3012.499929892055
 20
1306.428862096719
 30
0.0
 11
-3012.499929892055
 21
1206.42886209672
 31
0.0
  0
LWPOLYLINE
  5
F1
330
1F
100
AcDbEntity
  8
0-B
  6
Continuous
 62
     7
370
     9
100
AcDbPolyline
 90
        4
 70
     1
 43
3.0
 10
-3010.999929892055
 20
1306.428862096719
 42
0.4142135623731
 10
-3012.499929892055
 20
1307.928862096719
 42
0.4142135623731
 10
-3013.999929892055
 20
1306.428862096719
 42
0.4142135623731
 10
-3012.499929892055
 20
1304.928862096719
 42
0.4142135623731
  0
LINE
  5
F2
330
1F
100
AcDbEntity
  8
0-B
  6
Continuous
 62
   120
370
     5
100
AcDbLine
 10
-4122.499929892056
 20
1306.428862096719
 30
0.0
 11
-4122.499929892056
 21
1206.42886209672
 31
0.0
  0
LWPOLYLINE
  5
F3
330
1F
100
AcDbEntity
  8
0-B
  6
Continuous
 62
     7
370
     9
100
AcDbPolyline
 90
        4
 70
     1
 43
3.0
 10
-4120.999929892056
 20
1306.428862096719
 42
0.4142135623731
 10
-4122.499929892056
 20
1307.928862096719
 42
0.4142135623731
 10
-4123.999929892057
 20
1306.428862096719
 42
0.4142135623731
 10
-4122.499929892056
 20
1304.928862096719
 42
0.4142135623731
  0
LINE
  5
F4
330
1F
100
AcDbEntity
  8
0-B
  6
Continuous
 62
   120
370
     5
100
AcDbLine
 10
-3012.499929892055
 20
756.42886209672
 30
0.0
 11
-3012.499929892055
 21
956.4288620967202
 31
0.0
  0
LINE
  5
F5
330
1F
100
AcDbEntity
  8
0-B
  6
Continuous
 62
   120
370
     5
100
AcDbLine
 10
-4122.499929892056
 20
756.42886209672
 30
0.0
 11
-4122.499929892056
 21
956.4288620967202
 31
0.0
  0
LWPOLYLINE
  5
F6
330
1F
100
AcDbEntity
  8
0-B
  6
Continuous
 62
     7
370
     9
100
AcDbPolyline
 90
        4
 70
     1
 43
3.0
 10
-3010.999929892055
 20
756.42886209672
 42
0.4142135623731
 10
-3012.499929892055
 20
757.92886209672
 42
0.4142135623731
 10
-3013.999929892055
 20
756.42886209672
 42
0.4142135623731
 10
-3012.499929892055
 20
754.92886209672
 42
0.4142135623731
  0
LWPOLYLINE
  5
F7
330
1F
100
AcDbEntity
  8
0-B
  6
Continuous
 62
     7
370
     9
100
AcDbPolyline
 90
        4
 70
     1
 43
3.0
 10
-4120.999929892056
 20
756.42886209672
 42
0.4142135623731
 10
-4122.499929892056
 20
757.92886209672
 42
0.4142135623731
 10
-4123.999929892057
 20
756.42886209672
 42
0.4142135623731
 10
-4122.499929892056
 20
754.92886209672
 42
0.4142135623731
  0
LINE
  5
F8
330
1F
100
AcDbEntity
  8
0-B
  6
Continuous
 62
   120
370
     5
100
AcDbLine
 10
-4122.499929892056
 20
756.42886209672
 30
0.0
 11
-3012.499929892055
 21
756.42886209672
 31
0.0
  0
LWPOLYLINE
  5
F9
330
1F
100
AcDbEntity
  8
0-B
  6
Continuous
 62
     7
370
     9
100
AcDbPolyline
 90
        4
 70
     1
 43
3.0
 10
-3010.999929892055
 20
856.4288620967206
 42
0.4142135623731
 10
-3012.499929892055
 20
857.9288620967208
 42
0.4142135623731
 10
-3013.999929892055
 20
856.4288620967206
 42
0.4142135623731
 10
-3012.499929892055
 20
854.9288620967206
 42
0.4142135623731
  0
LINE
  5
FA
330
1F
100
AcDbEntity
  8
0-B
  6
Continuous
 62
   120
370
     5
100
AcDbLine
 10
-3052.499929892054
 20
856.4288620967206
 30
0.0
 11
-3012.499929892055
 21
856.4288620967206
 31
0.0
  0
LINE
  5
FB
330
1F
100
AcDbEntity
  8
0-B
  6
Continuous
 62
   120
370
     5
100
AcDbLine
 10
-3052.499929892054
 20
856.4288620967206
 30
0.0
 11
-3052.499929892054
 21
956.4288620967202
 31
0.0
  0
LWPOLYLINE
  5
FC
330
1F
100
AcDbEntity
  8
0-B
  6
Continuous
 62
     7
370
     9
100
AcDbPolyline
 90
        4
 70
     1
 43
3.0
 10
-3050.999929892054
 20
856.4288620967206
 42
0.4142135623731
 10
-3052.499929892054
 20
857.9288620967208
 42
0.4142135623731
 10
-3053.999929892054
 20
856.4288620967206
 42
0.4142135623731
 10
-3052.499929892054
 20
854.9288620967206
 42
0.4142135623731
  0
LINE
  5
FD
330
1F
100
AcDbEntity
  8
0-B
  6
Continuous
 62
   120
370
     5
100
AcDbLine
 10
-4082.499929892053
 20
856.4288620967206
 30
0.0
 11
-3052.499929892054
 21
856.4288620967206
 31
0.0
  0
LINE
  5
FE
330
1F
100
AcDbEntity
  8
0-B
  6
Continuous
 62
   120
370
     5
100
AcDbLine
 10
-4082.499929892053
 20
856.4288620967206
 30
0.0
 11
-4082.499929892053
 21
956.4288620967202
 31
0.0
  0
LWPOLYLINE
  5
FF
330
1F
100
AcDbEntity
  8
0-B
  6
Continuous
 62
     7
370
     9
100
AcDbPolyline
 90
        4
 70
     1
 43
3.0
 10
-4080.999929892053
 20
856.4288620967206
 42
0.4142135623731
 10
-4082.499929892053
 20
857.9288620967208
 42
0.4142135623731
 10
-4083.999929892053
 20
856.4288620967206
 42
0.4142135623731
 10
-4082.499929892053
 20
854.9288620967206
 42
0.4142135623731
  0
LWPOLYLINE
  5
100
330
1F
100
AcDbEntity
  8
0-B
  6
Continuous
 62
     7
370
     9
100
AcDbPolyline
 90
        4
 70
     1
 43
3.0
 10
-4120.999929892056
 20
856.4288620967206
 42
0.4142135623731
 10
-4122.499929892056
 20
857.9288620967208
 42
0.4142135623731
 10
-4123.999929892057
 20
856.4288620967206
 42
0.4142135623731
 10
-4122.499929892056
 20
854.9288620967206
 42
0.4142135623731
  0
LINE
  5
101
330
1F
100
AcDbEntity
  8
0-B
  6
Continuous
 62
   120
370
     5
100
AcDbLine
 10
-4122.499929892056
 20
856.4288620967206
 30
0.0
 11
-4082.499929892053
 21
856.4288620967206
 31
0.0
  0
LINE
  5
102
330
1F
100
AcDbEntity
  8
0-4
  6
Continuous
 62
    92
370
    13
100
AcDbLine
 10
-3052.500082479956
 20
1006.428862096719
 30
0.0
 11
-4082.499929892053
 21
1006.428862096719
 31
0.0
  0
LINE
  5
103
330
1F
100
AcDbEntity
  8
0-4
  6
Continuous
 62
    92
370
    13
100
AcDbLine
 10
-3012.499929892055
 20
1126.428862096717
 30
0.0
 11
-3052.499929892054
 21
1126.428862096717
 31
0.0
  0
LINE
  5
104
330
1F
100
AcDbEntity
  8
0-4
  6
Continuous
 62
    92
370
    13
100
AcDbLine
 10
-3052.499929892054
 20
1006.428862096719
 30
0.0
 11
-3052.499929892054
 21
1126.428013326579
 31
0.0
  0
LINE
  5
105
330
1F
100
AcDbEntity
  8
0-4
  6
Continuous
 62
    92
370
    13
100
AcDbLine
 10
-4082.499929892053
 20
1126.428862096717
 30
0.0
 11
-4122.499929892056
 21
1126.428862096717
 31
0.0
  0
LINE
  5
106
330
1F
100
AcDbEntity
  8
0-4
  6
Continuous
 62
    92
370
    13
100
AcDbLine
 10
-4082.499929892053
 20
1006.428862096719
 30
0.0
 11
-4082.499929892053
 21
1126.428013326579
 31
0.0
  0
LINE
  5
107
330
1F
100
AcDbEntity
  8
0-0
  6
JWW_HOJO
 62
   120
370
     5
100
AcDbLine
 10
-2962.499929892056
 20
756.42886209672
 30
0.0
 11
-2962.499929892056
 21
1306.428862096719
 31
0.0
  0
LINE
  5
108
330
1F
100
AcDbEntity
  8
0-0
  6
JWW_HOJO
 62
   120
370
     5
100
AcDbLine
 10
-4372.499929892056
 20
1306.428862096719
 30
0.0
 11
-2962.499929892056
 21
1306.428862096719
 31
0.0
  0
LINE
  5
109
330
1F
100
AcDbEntity
  8
0-0
  6
JWW_HOJO
 62
   120
370
     5
100
AcDbLine
 10
-2962.499929892056
 20
756.42886209672
 30
0.0
 11
-4372.499929892056
 21
756.42886209672
 31
0.0
  0
LINE
  5
10A
330
1F
100
AcDbEntity
  8
0-0
  6
JWW_HOJO
 62
   120
370
     5
100
AcDbLine
 10
-2962.499929892056
 20
856.4288620967206
 30
0.0
 11
-4172.499929892055
 21
856.4288620967206
 31
0.0
  0
LINE
  5
10B
330
1F
100
AcDbEntity
  8
0-0
  6
JWW_HOJO
 62
   120
370
     5
100
AcDbLine
 10
-3012.499929892055
 20
956.4288620967202
 30
0.0
 11
-4122.499929892056
 21
956.4288620967202
 31
0.0
  0
LINE
  5
10C
330
1F
100
AcDbEntity
  8
0-0
  6
JWW_HOJO
 62
   120
370
     5
100
AcDbLine
 10
-4122.499929892056
 20
1206.42886209672
 30
0.0
 11
-3012.499929892055
 21
1206.42886209672
 31
0.0
  0
LINE
  5
10D
330
1F
100
AcDbEntity
  8
0-0
  6
JWW_HOJO
 62
   120
370
     5
100
AcDbLine
 10
-3012.499929892055
 20
956.4288620967202
 30
0.0
 11
-3012.499929892055
 21
1206.42886209672
 31
0.0
  0
ARC
  5
10E
330
1F
100
AcDbEntity
  8
0-4
  6
Continuous
 62
    92
370
    13
100
AcDbCircle
 10
-3042.499929892055
 20
1126.428862096717
 30
0.0
 40
25.0
100
AcDbArc
 50
0.0
 51
90.0
  0
ARC
  5
10F
330
1F
100
AcDbEntity
  8
0-4
  6
Continuous
 62
    92
370
    13
100
AcDbCircle
 10
-3042.499929892055
 20
1126.428862096717
 30
0.0
 40
30.0
100
AcDbArc
 50
0.0
 51
90.0
  0
LINE
  5
110
330
1F
100
AcDbEntity
  8
0-0
  6
JWW_HOJO
 62
   120
370
     5
100
AcDbLine
 10
-4272.499929892056
 20
1306.428862096719
 30
0.0
 11
-4272.499929892056
 21
756.42886209672
 31
0.0
  0
LINE
  5
111
330
1F
100
AcDbEntity
  8
0-0
  6
JWW_HOJO
 62
   120
370
     5
100
AcDbLine
 10
-4372.499929892056
 20
1306.428862096719
 30
0.0
 11
-4372.499929892056
 21
756.42886209672
 31
0.0
  0
LINE
  5
112
330
1F
100
AcDbEntity
  8
0-0
  6
JWW_HOJO
 62
   120
370
     5
100
AcDbLine
 10
-4172.499929892055
 20
1306.428862096719
 30
0.0
 11
-4172.499929892055
 21
856.4288620967206
 31
0.0
  0
LINE
  5
113
330
1F
100
AcDbEntity
  8
0-0
  6
JWW_HOJO
 62
   120
370
     5
100
AcDbLine
 10
-4122.499929892056
 20
1206.42886209672
 30
0.0
 11
-4122.499929892056
 21
956.4288620967202
 31
0.0
  0
ARC
  5
114
330
1F
100
AcDbEntity
  8
0-4
  6
Continuous
 62
    92
370
    13
100
AcDbCircle
 10
-4092.499929892054
 20
1126.428862096717
 30
0.0
 40
25.0
100
AcDbArc
 50
90.0
 51
180.0
  0
ARC
  5
115
330
1F
100
AcDbEntity
  8
0-4
  6
Continuous
 62
    92
370
    13
100
AcDbCircle
 10
-4092.499929892054
 20
1126.428862096717
 30
0.0
 40
30.0
100
AcDbArc
 50
90.0
 51
180.0
  0
LINE
  5
116
330
1F
100
AcDbEntity
  8
0-B
  6
Continuous
 62
   120
370
     5
100
AcDbLine
 10
-3762.499596106044
 20
1096.42886209672
 30
0.0
 11
-3812.499596106045
 21
1096.42886209672
 31
0.0
  0
LINE
  5
117
330
1F
100
AcDbEntity
  8
0-B
  6
Continuous
 62
   120
370
     5
100
AcDbLine
 10
-3762.499596106044
 20
1156.428862096719
 30
0.0
 11
-3812.499596106045
 21
1156.428862096719
 31
0.0
  0
LWPOLYLINE
  5
118
330
1F
100
AcDbEntity
  8
0-B
  6
Continuous
 62
     7
370
     9
100
AcDbPolyline
 90
        4
 70
     1
 43
3.0
 10
-3760.999596106045
 20
1096.42886209672
 42
0.4142135623731
 10
-3762.499596106044
 20
1097.928862096719
 42
0.4142135623731
 10
-3763.999596106044
 20
1096.42886209672
 42
0.4142135623731
 10
-3762.499596106044
 20
1094.92886209672
 42
0.4142135623731
  0
LWPOLYLINE
  5
119
330
1F
100
AcDbEntity
  8
0-B
  6
Continuous
 62
     7
370
     9
100
AcDbPolyline
 90
        4
 70
     1
 43
3.0
 10
-3760.999596106045
 20
1156.428862096719
 42
0.4142135623731
 10
-3762.499596106044
 20
1157.928862096719
 42
0.4142135623731
 10
-3763.999596106044
 20
1156.428862096719
 42
0.4142135623731
 10
-3762.499596106044
 20
1154.928862096719
 42
0.4142135623731
  0
LINE
  5
11A
330
1F
100
AcDbEntity
  8
0-B
  6
Continuous
 62
   120
370
     5
100
AcDbLine
 10
-3762.499596106044
 20
1156.428862096719
 30
0.0
 11
-3762.499596106044
 21
1096.42886209672
 31
0.0
  0
LINE
  5
11B
330
1F
100
AcDbEntity
  8
0-B
  6
Continuous
 62
   120
370
     5
100
AcDbLine
 10
-4372.499929892056
 20
1156.428862096719
 30
0.0
 11
-4172.499929892055
 21
1156.428862096719
 31
0.0
  0
LINE
  5
11C
330
1F
100
AcDbEntity
  8
0-B
  6
Continuous
 62
   120
370
     5
100
AcDbLine
 10
-4372.499929892056
 20
1006.428862096719
 30
0.0
 11
-4172.499929892055
 21
1006.428862096719
 31
0.0
  0
LWPOLYLINE
  5
11D
330
1F
100
AcDbEntity
  8
0-B
  6
Continuous
 62
     7
370
     9
100
AcDbPolyline
 90
        4
 70
     1
 43
3.0
 10
-4370.999929892055
 20
1156.428862096719
 42
0.4142135623731
 10
-4372.499929892056
 20
1157.928862096719
 42
0.4142135623731
 10
-4373.999929892056
 20
1156.428862096719
 42
0.4142135623731
 10
-4372.499929892056
 20
1154.928862096719
 42
0.4142135623731
  0
LWPOLYLINE
  5
11E
330
1F
100
AcDbEntity
  8
0-B
  6
Continuous
 62
     7
370
     9
100
AcDbPolyline
 90
        4
 70
     1
 43
3.0
 10
-4370.999929892055
 20
1006.428862096719
 42
0.4142135623731
 10
-4372.499929892056
 20
1007.928862096719
 42
0.4142135623731
 10
-4373.999929892056
 20
1006.428862096719
 42
0.4142135623731
 10
-4372.499929892056
 20
1004.92886209672
 42
0.4142135623731
  0
LINE
  5
11F
330
1F
100
AcDbEntity
  8
0-B
  6
Continuous
 62
   120
370
     5
100
AcDbLine
 10
-4372.499929892056
 20
1006.428862096719
 30
0.0
 11
-4372.499929892056
 21
1156.428862096719
 31
0.0
  0
LWPOLYLINE
  5
120
330
1F
100
AcDbEntity
  8
0-B
  6
Continuous
 62
     7
370
     9
100
AcDbPolyline
 90
        4
 70
     1
 43
3.0
 10
-4270.999929892056
 20
1156.428862096719
 42
0.4142135623731
 10
-4272.499929892056
 20
1157.928862096719
 42
0.4142135623731
 10
-4273.999929892057
 20
1156.428862096719
 42
0.4142135623731
 10
-4272.499929892056
 20
1154.928862096719
 42
0.4142135623731
  0
LINE
  5
121
330
1F
100
AcDbEntity
  8
0-B
  6
Continuous
 62
   120
370
     5
100
AcDbLine
 10
-4272.499929892056
 20
1126.428013326579
 30
0.0
 11
-4272.499929892056
 21
1156.428862096719
 31
0.0
  0
LINE
  5
122
330
1F
100
AcDbEntity
  8
0-B
  6
Continuous
 62
   120
370
     5
100
AcDbLine
 10
-4272.499929892056
 20
1126.428013326579
 30
0.0
 11
-4172.499929892055
 21
1126.428013326579
 31
0.0
  0
LWPOLYLINE
  5
123
330
1F
100
AcDbEntity
  8
0-B
  6
Continuous
 62
     7
370
     9
100
AcDbPolyline
 90
        4
 70
     1
 43
3.0
 10
-4270.999929892056
 20
1126.428013326579
 42
0.4142135623731
 10
-4272.499929892056
 20
1127.928013326579
 42
0.4142135623731
 10
-4273.999929892057
 20
1126.428013326579
 42
0.4142135623731
 10
-4272.499929892056
 20
1124.928013326579
 42
0.4142135623731
  0
LWPOLYLINE
  5
124
330
1F
100
AcDbEntity
  8
0-B
  6
Continuous
 62
     7
370
     9
100
AcDbPolyline
 90
        4
 70
     1
 43
3.0
 10
-4270.999929892056
 20
1006.428862096719
 42
0.4142135623731
 10
-4272.499929892056
 20
1007.928862096719
 42
0.4142135623731
 10
-4273.999929892057
 20
1006.428862096719
 42
0.4142135623731
 10
-4272.499929892056
 20
1004.92886209672
 42
0.4142135623731
  0
LINE
  5
125
330
1F
100
AcDbEntity
  8
0-B
  6
Continuous
 62
   120
370
     5
100
AcDbLine
 10
-4272.499929892056
 20
1006.428862096719
 30
0.0
 11
-4272.499929892056
 21
1126.428013326579
 31
0.0
  0
LINE
  5
126
330
1F
100
AcDbEntity
  8
0-B
  6
Continuous
 62
   120
370
     5
100
AcDbLine
 10
-3153.499596106044
 20
1306.428862096719
 30
0.0
 11
-2789.999929892055
 21
1306.428862096719
 31
0.0
  0
LINE
  5
127
330
1F
100
AcDbEntity
  8
0-B
  6
Continuous
 62
   120
370
     5
100
AcDbLine
 10
-3153.499596106044
 20
1306.428862096719
 30
0.0
 11
-3153.499596106044
 21
1206.42886209672
 31
0.0
  0
LWPOLYLINE
  5
128
330
1F
100
AcDbEntity
  8
0-B
  6
Continuous
 62
     7
370
     9
100
AcDbPolyline
 90
        4
 70
     1
 43
3.0
 10
-3151.999596106044
 20
1306.428862096719
 42
0.4142135623731
 10
-3153.499596106044
 20
1307.928862096719
 42
0.4142135623731
 10
-3154.999596106044
 20
1306.428862096719
 42
0.4142135623731
 10
-3153.499596106044
 20
1304.928862096719
 42
0.4142135623731
  0
LINE
  5
129
330
1F
100
AcDbEntity
  8
0-B
  6
Continuous
 62
   120
370
     5
100
AcDbLine
 10
-3241.499929892055
 20
1306.428862096719
 30
0.0
 11
-3153.499596106044
 21
1306.428862096719
 31
0.0
  0
LINE
  5
12A
330
1F
100
AcDbEntity
  8
0-B
  6
Continuous
 62
   120
370
     5
100
AcDbLine
 10
-3241.499929892055
 20
1306.428862096719
 30
0.0
 11
-3241.499929892055
 21
1206.42886209672
 31
0.0
  0
LWPOLYLINE
  5
12B
330
1F
100
AcDbEntity
  8
0-B
  6
Continuous
 62
     7
370
     9
100
AcDbPolyline
 90
        4
 70
     1
 43
3.0
 10
-3239.999929892055
 20
1306.428862096719
 42
0.4142135623731
 10
-3241.499929892055
 20
1307.928862096719
 42
0.4142135623731
 10
-3242.999929892055
 20
1306.428862096719
 42
0.4142135623731
 10
-3241.499929892055
 20
1304.928862096719
 42
0.4142135623731
  0
LINE
  5
12C
330
1F
100
AcDbEntity
  8
0-B
  6
Continuous
 62
   120
370
     5
100
AcDbLine
 10
-3533.500263678066
 20
1306.428862096719
 30
0.0
 11
-3241.499929892055
 21
1306.428862096719
 31
0.0
  0
LINE
  5
12D
330
1F
100
AcDbEntity
  8
0-B
  6
Continuous
 62
   120
370
     5
100
AcDbLine
 10
-3533.500263678066
 20
1306.428862096719
 30
0.0
 11
-3533.500263678066
 21
1206.42886209672
 31
0.0
  0
LWPOLYLINE
  5
12E
330
1F
100
AcDbEntity
  8
0-B
  6
Continuous
 62
     7
370
     9
100
AcDbPolyline
 90
        4
 70
     1
 43
3.0
 10
-3532.000263678066
 20
1306.428862096719
 42
0.4142135623731
 10
-3533.500263678066
 20
1307.928862096719
 42
0.4142135623731
 10
-3535.000263678065
 20
1306.428862096719
 42
0.4142135623731
 10
-3533.500263678066
 20
1304.928862096719
 42
0.4142135623731
  0
LINE
  5
12F
330
1F
100
AcDbEntity
  8
0-B
  6
Continuous
 62
   120
370
     5
100
AcDbLine
 10
-3621.499929892055
 20
1306.428862096719
 30
0.0
 11
-3533.500263678066
 21
1306.428862096719
 31
0.0
  0
LINE
  5
130
330
1F
100
AcDbEntity
  8
0-B
  6
Continuous
 62
   120
370
     5
100
AcDbLine
 10
-3621.499929892055
 20
1306.428862096719
 30
0.0
 11
-3621.499929892055
 21
1206.42886209672
 31
0.0
  0
LWPOLYLINE
  5
131
330
1F
100
AcDbEntity
  8
0-B
  6
Continuous
 62
     7
370
     9
100
AcDbPolyline
 90
        4
 70
     1
 43
3.0
 10
-3619.999929892055
 20
1306.428862096719
 42
0.4142135623731
 10
-3621.499929892055
 20
1307.928862096719
 42
0.4142135623731
 10
-3622.999929892054
 20
1306.428862096719
 42
0.4142135623731
 10
-3621.499929892055
 20
1304.928862096719
 42
0.4142135623731
  0
LINE
  5
132
330
1F
100
AcDbEntity
  8
0-B
  6
Continuous
 62
   120
370
     5
100
AcDbLine
 10
-4122.499929892056
 20
1306.428862096719
 30
0.0
 11
-3621.499929892055
 21
1306.428862096719
 31
0.0
  0
LINE
  5
133
330
1F
100
AcDbEntity
  8
0-4
  6
Continuous
 62
    92
370
    13
100
AcDbLine
 10
-4092.500349508759
 20
1151.429338933875
 30
0.0
 11
-3621.500263678066
 21
1151.429338933875
 31
0.0
  0
LINE
  5
134
330
1F
100
AcDbEntity
  8
0-4
  6
Continuous
 62
    92
370
    13
100
AcDbLine
 10
-4092.499929892054
 20
1156.428862096719
 30
0.0
 11
-3621.500263678066
 21
1156.428862096719
 31
0.0
  0
LINE
  5
135
330
1F
100
AcDbEntity
  8
0-4
  6
Continuous
 62
    92
370
    13
100
AcDbLine
 10
-3241.499929892055
 20
1151.429338933875
 30
0.0
 11
-3533.500263678066
 21
1151.429338933875
 31
0.0
  0
LINE
  5
136
330
1F
100
AcDbEntity
  8
0-4
  6
Continuous
 62
    92
370
    13
100
AcDbLine
 10
-3241.499929892055
 20
1156.428862096719
 30
0.0
 11
-3533.500263678066
 21
1156.428862096719
 31
0.0
  0
LINE
  5
137
330
1F
100
AcDbEntity
  8
0-4
  6
Continuous
 62
    92
370
    13
100
AcDbLine
 10
-3042.499510275361
 20
1151.429338933875
 30
0.0
 11
-3153.499596106044
 21
1151.429338933875
 31
0.0
  0
LINE
  5
138
330
1F
100
AcDbEntity
  8
0-4
  6
Continuous
 62
    92
370
    13
100
AcDbLine
 10
-3042.499929892055
 20
1156.428862096719
 30
0.0
 11
-3153.499596106044
 21
1156.428862096719
 31
0.0
  0
LINE
  5
139
330
1F
100
AcDbEntity
  8
0-4
  6
Continuous
 62
    92
370
    13
100
AcDbLine
 10
-3153.499929892055
 20
1096.42886209672
 30
0.0
 11
-3153.499929892055
 21
1156.428862096719
 31
0.0
  0
LINE
  5
13A
330
1F
100
AcDbEntity
  8
0-4
  6
Continuous
 62
    92
370
    13
100
AcDbLine
 10
-3153.499596106044
 20
1096.42886209672
 30
0.0
 11
-3153.499596106044
 21
1151.429338933875
 31
0.0
  0
LINE
  5
13B
330
1F
100
AcDbEntity
  8
0-4
  6
Continuous
 62
    92
370
    13
100
AcDbLine
 10
-3241.499596106044
 20
1096.42886209672
 30
0.0
 11
-3241.499596106044
 21
1156.428862096719
 31
0.0
  0
LINE
  5
13C
330
1F
100
AcDbEntity
  8
0-4
  6
Continuous
 62
    92
370
    13
100
AcDbLine
 10
-3241.499929892055
 20
1096.42886209672
 30
0.0
 11
-3241.499929892055
 21
1151.429338933875
 31
0.0
  0
LINE
  5
13D
330
1F
100
AcDbEntity
  8
0-4
  6
Continuous
 62
    92
370
    13
100
AcDbLine
 10
-3153.499596106044
 20
1096.42886209672
 30
0.0
 11
-3241.499929892055
 21
1096.42886209672
 31
0.0
  0
ARC
  5
13E
330
1F
100
AcDbEntity
  8
0-7
  6
Continuous
 62
     7
370
     9
100
AcDbCircle
 10
-3237.070762999051
 20
1151.427862096718
 30
0.0
 40
5.000000000000142
100
AcDbArc
 50
44.99999999999995
 51
89.99999999999996
  0
ARC
  5
13F
330
1F
100
AcDbEntity
  8
0-7
  6
Continuous
 62
     7
370
     9
100
AcDbCircle
 10
-3218.756762999046
 20
1144.427862096718
 30
0.0
 40
3.000000000000085
100
AcDbArc
 50
224.9999999999999
 51
269.9999999999999
  0
ARC
  5
140
330
1F
100
AcDbEntity
  8
0-7
  6
Continuous
 62
     7
370
     9
100
AcDbCircle
 10
-3215.49976299905
 20
1139.427862096718
 30
0.0
 40
2.000000000000057
100
AcDbArc
 50
359.9999999999999
 51
89.99999999999997
  0
ARC
  5
141
330
1F
100
AcDbEntity
  8
0-7
  6
Continuous
 62
     7
370
     9
100
AcDbCircle
 10
-3179.499762999048
 20
1139.427862096718
 30
0.0
 40
2.000000000000057
100
AcDbArc
 50
89.99999999999997
 51
180.0
  0
ARC
  5
142
330
1F
100
AcDbEntity
  8
0-7
  6
Continuous
 62
     7
370
     9
100
AcDbCircle
 10
-3157.928762999048
 20
1151.427862096718
 30
0.0
 40
5.000000000000142
100
AcDbArc
 50
89.99999999999996
 51
135.0
  0
ARC
  5
143
330
1F
100
AcDbEntity
  8
0-7
  6
Continuous
 62
     7
370
     9
100
AcDbCircle
 10
-3176.242762999052
 20
1144.427862096718
 30
0.0
 40
3.000000000000085
100
AcDbArc
 50
270.0
 51
315.0
  0
ARC
  5
144
330
1F
100
AcDbEntity
  8
0-7
  6
Continuous
 62
     7
370
     9
100
AcDbCircle
 10
-3238.499762999051
 20
1109.428862096719
 30
0.0
 40
2.000000000000057
100
AcDbArc
 50
89.99999999999987
 51
201.6159999999999
  0
ARC
  5
145
330
1F
100
AcDbEntity
  8
0-7
  6
Continuous
 62
     7
370
     9
100
AcDbCircle
 10
-3210.499762999049
 20
1114.428862096718
 30
0.0
 40
3.000000000000085
100
AcDbArc
 50
179.9999999999999
 51
269.9999999999999
  0
ARC
  5
146
330
1F
100
AcDbEntity
  8
0-7
  6
Continuous
 62
     7
370
     9
100
AcDbCircle
 10
-3184.499762999049
 20
1114.428862096718
 30
0.0
 40
3.000000000000085
100
AcDbArc
 50
269.9999999999999
 51
359.9999999999999
  0
ARC
  5
147
330
1F
100
AcDbEntity
  8
0-7
  6
Continuous
 62
     7
370
     9
100
AcDbCircle
 10
-3156.499762999047
 20
1109.428862096719
 30
0.0
 40
2.000000000000057
100
AcDbArc
 50
338.384
 51
89.99999999999997
  0
ARC
  5
148
330
1F
100
AcDbEntity
  8
0-7
  6
Continuous
 62
     7
370
     9
100
AcDbCircle
 10
-3262.498762999049
 20
1124.067862096719
 30
0.0
 40
30.00000000000085
100
AcDbArc
 50
0.0
 51
48.18999999999998
  0
ARC
  5
149
330
1F
100
AcDbEntity
  8
0-7
  6
Continuous
 62
     7
370
     9
100
AcDbCircle
 10
-3132.499762999052
 20
1124.067862096719
 30
0.0
 40
30.00000000000085
100
AcDbArc
 50
131.81
 51
180.0
  0
LINE
  5
14A
330
1F
100
AcDbEntity
  8
0-7
  6
Continuous
 62
     7
370
     9
100
AcDbLine
 10
-3242.499762999048
 20
1156.427862096718
 30
0.0
 11
-3237.070762999051
 21
1156.427862096718
 31
0.0
  0
LINE
  5
14B
330
1F
100
AcDbEntity
  8
0-7
  6
Continuous
 62
     7
370
     9
100
AcDbLine
 10
-3242.499762999048
 20
1146.427862096719
 30
0.0
 11
-3242.499762999048
 21
1156.427862096718
 31
0.0
  0
LINE
  5
14C
330
1F
100
AcDbEntity
  8
0-7
  6
Continuous
 62
     7
370
     9
100
AcDbLine
 10
-3218.756762999046
 20
1141.427862096719
 30
0.0
 11
-3215.49976299905
 21
1141.427862096719
 31
0.0
  0
LINE
  5
14D
330
1F
100
AcDbEntity
  8
0-7
  6
Continuous
 62
     7
370
     9
100
AcDbLine
 10
-3220.877762999051
 20
1142.306862096718
 30
0.0
 11
-3233.534762999047
 21
1154.963862096718
 31
0.0
  0
LINE
  5
14E
330
1F
100
AcDbEntity
  8
0-7
  6
Continuous
 62
     7
370
     9
100
AcDbLine
 10
-3176.242762999052
 20
1141.427862096719
 30
0.0
 11
-3179.499762999048
 21
1141.427862096719
 31
0.0
  0
LINE
  5
14F
330
1F
100
AcDbEntity
  8
0-7
  6
Continuous
 62
     7
370
     9
100
AcDbLine
 10
-3174.12076299905
 20
1142.306862096718
 30
0.0
 11
-3161.464762999051
 21
1154.963862096718
 31
0.0
  0
LINE
  5
150
330
1F
100
AcDbEntity
  8
0-7
  6
Continuous
 62
     7
370
     9
100
AcDbLine
 10
-3232.499762999051
 20
1111.428862096718
 30
0.0
 11
-3238.499762999051
 21
1111.428862096718
 31
0.0
  0
LINE
  5
151
330
1F
100
AcDbEntity
  8
0-7
  6
Continuous
 62
     7
370
     9
100
AcDbLine
 10
-3232.499762999051
 20
1111.428862096718
 30
0.0
 11
-3232.499762999051
 21
1124.067862096719
 31
0.0
  0
LINE
  5
152
330
1F
100
AcDbEntity
  8
0-7
  6
Continuous
 62
     7
370
     9
100
AcDbLine
 10
-3200.499762999052
 20
1111.428862096718
 30
0.0
 11
-3210.499762999049
 21
1111.428862096718
 31
0.0
  0
LINE
  5
153
330
1F
100
AcDbEntity
  8
0-7
  6
Continuous
 62
     7
370
     9
100
AcDbLine
 10
-3224.499762999047
 20
1096.42886209672
 30
0.0
 11
-3222.499762999048
 21
1098.428862096718
 31
0.0
  0
LINE
  5
154
330
1F
100
AcDbEntity
  8
0-7
  6
Continuous
 62
     7
370
     9
100
AcDbLine
 10
-3224.499762999047
 20
1096.42886209672
 30
0.0
 11
-3235.499762999048
 21
1096.42886209672
 31
0.0
  0
LINE
  5
155
330
1F
100
AcDbEntity
  8
0-7
  6
Continuous
 62
     7
370
     9
100
AcDbLine
 10
-3222.499762999048
 20
1098.428862096718
 30
0.0
 11
-3220.49976299905
 21
1096.42886209672
 31
0.0
  0
LINE
  5
156
330
1F
100
AcDbEntity
  8
0-7
  6
Continuous
 62
     7
370
     9
100
AcDbLine
 10
-3235.499762999048
 20
1096.42886209672
 30
0.0
 11
-3240.358762999047
 21
1108.69186209672
 31
0.0
  0
LINE
  5
157
330
1F
100
AcDbEntity
  8
0-7
  6
Continuous
 62
     7
370
     9
100
AcDbLine
 10
-3194.499762999047
 20
1111.428862096718
 30
0.0
 11
-3197.499762999049
 21
1108.428862096717
 31
0.0
  0
LINE
  5
158
330
1F
100
AcDbEntity
  8
0-7
  6
Continuous
 62
     7
370
     9
100
AcDbLine
 10
-3184.499762999049
 20
1111.428862096718
 30
0.0
 11
-3194.499762999047
 21
1111.428862096718
 31
0.0
  0
LINE
  5
159
330
1F
100
AcDbEntity
  8
0-7
  6
Continuous
 62
     7
370
     9
100
AcDbLine
 10
-3162.499762999052
 20
1111.428862096718
 30
0.0
 11
-3156.499762999047
 21
1111.428862096718
 31
0.0
  0
LINE
  5
15A
330
1F
100
AcDbEntity
  8
0-7
  6
Continuous
 62
     7
370
     9
100
AcDbLine
 10
-3162.499762999052
 20
1111.428862096718
 30
0.0
 11
-3162.499762999052
 21
1124.067862096719
 31
0.0
  0
LINE
  5
15B
330
1F
100
AcDbEntity
  8
0-7
  6
Continuous
 62
     7
370
     9
100
AcDbLine
 10
-3170.499762999052
 20
1096.42886209672
 30
0.0
 11
-3172.49976299905
 21
1098.428862096718
 31
0.0
  0
LINE
  5
15C
330
1F
100
AcDbEntity
  8
0-7
  6
Continuous
 62
     7
370
     9
100
AcDbLine
 10
-3172.49976299905
 20
1098.428862096718
 30
0.0
 11
-3174.499762999048
 21
1096.42886209672
 31
0.0
  0
LINE
  5
15D
330
1F
100
AcDbEntity
  8
0-7
  6
Continuous
 62
     7
370
     9
100
AcDbLine
 10
-3170.499762999052
 20
1096.42886209672
 30
0.0
 11
-3159.499762999049
 21
1096.42886209672
 31
0.0
  0
LINE
  5
15E
330
1F
100
AcDbEntity
  8
0-7
  6
Continuous
 62
     7
370
     9
100
AcDbLine
 10
-3159.499762999049
 20
1096.42886209672
 30
0.0
 11
-3154.640762999051
 21
1108.69186209672
 31
0.0
  0
LINE
  5
15F
330
1F
100
AcDbEntity
  8
0-7
  6
Continuous
 62
     7
370
     9
100
AcDbLine
 10
-3197.499762999049
 20
1108.428862096717
 30
0.0
 11
-3200.499762999052
 21
1111.428862096718
 31
0.0
  0
LINE
  5
160
330
1F
100
AcDbEntity
  8
0-7
  6
Continuous
 62
     7
370
     9
100
AcDbLine
 10
-3220.49976299905
 20
1096.42886209672
 30
0.0
 11
-3174.499762999048
 21
1096.42886209672
 31
0.0
  0
LINE
  5
161
330
1F
100
AcDbEntity
  8
0-7
  6
Continuous
 62
     7
370
     9
100
AcDbLine
 10
-3181.499762999047
 20
1114.428862096718
 30
0.0
 11
-3181.499762999047
 21
1139.427862096718
 31
0.0
  0
LINE
  5
162
330
1F
100
AcDbEntity
  8
0-7
  6
Continuous
 62
     7
370
     9
100
AcDbLine
 10
-3213.499762999052
 20
1114.428862096718
 30
0.0
 11
-3213.499762999052
 21
1139.427862096718
 31
0.0
  0
LINE
  5
163
330
1F
100
AcDbEntity
  8
0-7
  6
Continuous
 62
     7
370
     9
100
AcDbLine
 10
-3152.499762999051
 20
1146.427862096719
 30
0.0
 11
-3152.499762999051
 21
1156.427862096718
 31
0.0
  0
LINE
  5
164
330
1F
100
AcDbEntity
  8
0-7
  6
Continuous
 62
     7
370
     9
100
AcDbLine
 10
-3152.499762999051
 20
1156.427862096718
 30
0.0
 11
-3157.928762999048
 21
1156.427862096718
 31
0.0
  0
ARC
  5
165
330
1F
100
AcDbEntity
  8
0-7
  6
Continuous
 62
     7
370
     9
100
AcDbCircle
 10
-3537.929096785061
 20
1151.427862096718
 30
0.0
 40
5.000000000000142
100
AcDbArc
 50
90.00000000000006
 51
135.0000000000001
  0
ARC
  5
166
330
1F
100
AcDbEntity
  8
0-7
  6
Continuous
 62
     7
370
     9
100
AcDbCircle
 10
-3556.243096785063
 20
1144.427862096718
 30
0.0
 40
3.000000000000085
100
AcDbArc
 50
270.0000000000001
 51
315.0000000000001
  0
ARC
  5
167
330
1F
100
AcDbEntity
  8
0-7
  6
Continuous
 62
     7
370
     9
100
AcDbCircle
 10
-3559.50009678506
 20
1139.427862096718
 30
0.0
 40
2.000000000000057
100
AcDbArc
 50
90.00000000000001
 51
180.0
  0
ARC
  5
168
330
1F
100
AcDbEntity
  8
0-7
  6
Continuous
 62
     7
370
     9
100
AcDbCircle
 10
-3595.500096785061
 20
1139.427862096718
 30
0.0
 40
2.000000000000057
100
AcDbArc
 50
0.0000000000000127
 51
90.00000000000004
  0
ARC
  5
169
330
1F
100
AcDbEntity
  8
0-7
  6
Continuous
 62
     7
370
     9
100
AcDbCircle
 10
-3617.071096785061
 20
1151.427862096718
 30
0.0
 40
5.000000000000142
100
AcDbArc
 50
45.00000000000003
 51
90.00000000000004
  0
ARC
  5
16A
330
1F
100
AcDbEntity
  8
0-7
  6
Continuous
 62
     7
370
     9
100
AcDbCircle
 10
-3598.757096785057
 20
1144.427862096718
 30
0.0
 40
3.000000000000085
100
AcDbArc
 50
225.0
 51
270.0000000000001
  0
ARC
  5
16B
330
1F
100
AcDbEntity
  8
0-7
  6
Continuous
 62
     7
370
     9
100
AcDbCircle
 10
-3536.500096785058
 20
1109.428862096719
 30
0.0
 40
2.000000000000057
100
AcDbArc
 50
338.3840000000001
 51
90.00000000000011
  0
ARC
  5
16C
330
1F
100
AcDbEntity
  8
0-7
  6
Continuous
 62
     7
370
     9
100
AcDbCircle
 10
-3564.500096785062
 20
1114.428862096718
 30
0.0
 40
3.000000000000085
100
AcDbArc
 50
270.0000000000001
 51
0.0000000000000763
  0
ARC
  5
16D
330
1F
100
AcDbEntity
  8
0-7
  6
Continuous
 62
     7
370
     9
100
AcDbCircle
 10
-3590.50009678506
 20
1114.428862096718
 30
0.0
 40
3.000000000000085
100
AcDbArc
 50
180.0
 51
270.0000000000001
  0
ARC
  5
16E
330
1F
100
AcDbEntity
  8
0-7
  6
Continuous
 62
     7
370
     9
100
AcDbCircle
 10
-3618.500096785064
 20
1109.428862096719
 30
0.0
 40
2.000000000000057
100
AcDbArc
 50
90.00000000000001
 51
201.6160000000001
  0
ARC
  5
16F
330
1F
100
AcDbEntity
  8
0-7
  6
Continuous
 62
     7
370
     9
100
AcDbCircle
 10
-3512.50109678506
 20
1124.067862096719
 30
0.0
 40
30.00000000000085
100
AcDbArc
 50
131.81
 51
180.0
  0
ARC
  5
170
330
1F
100
AcDbEntity
  8
0-7
  6
Continuous
 62
     7
370
     9
100
AcDbCircle
 10
-3642.500096785059
 20
1124.067862096719
 30
0.0
 40
30.00000000000085
100
AcDbArc
 50
0.0000000000000127
 51
48.19000000000003
  0
LINE
  5
171
330
1F
100
AcDbEntity
  8
0-4
  6
Continuous
 62
    92
370
    13
100
AcDbLine
 10
-3533.500263678066
 20
1096.42886209672
 30
0.0
 11
-3533.500263678066
 21
1156.428862096719
 31
0.0
  0
LINE
  5
172
330
1F
100
AcDbEntity
  8
0-4
  6
Continuous
 62
    92
370
    13
100
AcDbLine
 10
-3533.499929892054
 20
1096.42886209672
 30
0.0
 11
-3533.499929892054
 21
1151.429338933875
 31
0.0
  0
LINE
  5
173
330
1F
100
AcDbEntity
  8
0-4
  6
Continuous
 62
    92
370
    13
100
AcDbLine
 10
-3621.499929892055
 20
1096.42886209672
 30
0.0
 11
-3621.499929892055
 21
1156.428862096719
 31
0.0
  0
LINE
  5
174
330
1F
100
AcDbEntity
  8
0-4
  6
Continuous
 62
    92
370
    13
100
AcDbLine
 10
-3621.500263678066
 20
1096.42886209672
 30
0.0
 11
-3621.500263678066
 21
1151.429338933875
 31
0.0
  0
LINE
  5
175
330
1F
100
AcDbEntity
  8
0-4
  6
Continuous
 62
    92
370
    13
100
AcDbLine
 10
-3621.500263678066
 20
1096.42886209672
 30
0.0
 11
-3533.499929892054
 21
1096.42886209672
 31
0.0
  0
LINE
  5
176
330
1F
100
AcDbEntity
  8
0-7
  6
Continuous
 62
     7
370
     9
100
AcDbLine
 10
-3532.500096785062
 20
1156.427862096718
 30
0.0
 11
-3537.929096785061
 21
1156.427862096718
 31
0.0
  0
LINE
  5
177
330
1F
100
AcDbEntity
  8
0-7
  6
Continuous
 62
     7
370
     9
100
AcDbLine
 10
-3532.500096785062
 20
1146.427862096719
 30
0.0
 11
-3532.500096785062
 21
1156.427862096718
 31
0.0
  0
LINE
  5
178
330
1F
100
AcDbEntity
  8
0-7
  6
Continuous
 62
     7
370
     9
100
AcDbLine
 10
-3556.243096785063
 20
1141.427862096719
 30
0.0
 11
-3559.50009678506
 21
1141.427862096719
 31
0.0
  0
LINE
  5
179
330
1F
100
AcDbEntity
  8
0-7
  6
Continuous
 62
     7
370
     9
100
AcDbLine
 10
-3554.122096785058
 20
1142.306862096718
 30
0.0
 11
-3541.465096785062
 21
1154.963862096718
 31
0.0
  0
LINE
  5
17A
330
1F
100
AcDbEntity
  8
0-7
  6
Continuous
 62
     7
370
     9
100
AcDbLine
 10
-3598.757096785057
 20
1141.427862096719
 30
0.0
 11
-3595.500096785061
 21
1141.427862096719
 31
0.0
  0
LINE
  5
17B
330
1F
100
AcDbEntity
  8
0-7
  6
Continuous
 62
     7
370
     9
100
AcDbLine
 10
-3600.879096785061
 20
1142.306862096718
 30
0.0
 11
-3613.535096785059
 21
1154.963862096718
 31
0.0
  0
LINE
  5
17C
330
1F
100
AcDbEntity
  8
0-7
  6
Continuous
 62
     7
370
     9
100
AcDbLine
 10
-3542.500096785058
 20
1111.428862096718
 30
0.0
 11
-3536.500096785058
 21
1111.428862096718
 31
0.0
  0
LINE
  5
17D
330
1F
100
AcDbEntity
  8
0-7
  6
Continuous
 62
     7
370
     9
100
AcDbLine
 10
-3542.500096785058
 20
1111.428862096718
 30
0.0
 11
-3542.500096785058
 21
1124.067862096719
 31
0.0
  0
LINE
  5
17E
330
1F
100
AcDbEntity
  8
0-7
  6
Continuous
 62
     7
370
     9
100
AcDbLine
 10
-3574.500096785058
 20
1111.428862096718
 30
0.0
 11
-3564.500096785062
 21
1111.428862096718
 31
0.0
  0
LINE
  5
17F
330
1F
100
AcDbEntity
  8
0-7
  6
Continuous
 62
     7
370
     9
100
AcDbLine
 10
-3550.500096785062
 20
1096.42886209672
 30
0.0
 11
-3552.500096785061
 21
1098.428862096718
 31
0.0
  0
LINE
  5
180
330
1F
100
AcDbEntity
  8
0-7
  6
Continuous
 62
     7
370
     9
100
AcDbLine
 10
-3550.500096785062
 20
1096.42886209672
 30
0.0
 11
-3539.500096785061
 21
1096.42886209672
 31
0.0
  0
LINE
  5
181
330
1F
100
AcDbEntity
  8
0-7
  6
Continuous
 62
     7
370
     9
100
AcDbLine
 10
-3552.500096785061
 20
1098.428862096718
 30
0.0
 11
-3554.500096785059
 21
1096.42886209672
 31
0.0
  0
LINE
  5
182
330
1F
100
AcDbEntity
  8
0-7
  6
Continuous
 62
     7
370
     9
100
AcDbLine
 10
-3539.500096785061
 20
1096.42886209672
 30
0.0
 11
-3534.641096785062
 21
1108.69186209672
 31
0.0
  0
LINE
  5
183
330
1F
100
AcDbEntity
  8
0-7
  6
Continuous
 62
     7
370
     9
100
AcDbLine
 10
-3580.500096785064
 20
1111.428862096718
 30
0.0
 11
-3577.50009678506
 21
1108.428862096717
 31
0.0
  0
LINE
  5
184
330
1F
100
AcDbEntity
  8
0-7
  6
Continuous
 62
     7
370
     9
100
AcDbLine
 10
-3590.50009678506
 20
1111.428862096718
 30
0.0
 11
-3580.500096785064
 21
1111.428862096718
 31
0.0
  0
LINE
  5
185
330
1F
100
AcDbEntity
  8
0-7
  6
Continuous
 62
     7
370
     9
100
AcDbLine
 10
-3612.500096785057
 20
1111.428862096718
 30
0.0
 11
-3618.500096785064
 21
1111.428862096718
 31
0.0
  0
LINE
  5
186
330
1F
100
AcDbEntity
  8
0-7
  6
Continuous
 62
     7
370
     9
100
AcDbLine
 10
-3612.500096785057
 20
1111.428862096718
 30
0.0
 11
-3612.500096785057
 21
1124.067862096719
 31
0.0
  0
LINE
  5
187
330
1F
100
AcDbEntity
  8
0-7
  6
Continuous
 62
     7
370
     9
100
AcDbLine
 10
-3604.50009678506
 20
1096.42886209672
 30
0.0
 11
-3602.500096785061
 21
1098.428862096718
 31
0.0
  0
LINE
  5
188
330
1F
100
AcDbEntity
  8
0-7
  6
Continuous
 62
     7
370
     9
100
AcDbLine
 10
-3602.500096785061
 20
1098.428862096718
 30
0.0
 11
-3600.500096785063
 21
1096.42886209672
 31
0.0
  0
LINE
  5
189
330
1F
100
AcDbEntity
  8
0-7
  6
Continuous
 62
     7
370
     9
100
AcDbLine
 10
-3604.50009678506
 20
1096.42886209672
 30
0.0
 11
-3615.50009678506
 21
1096.42886209672
 31
0.0
  0
LINE
  5
18A
330
1F
100
AcDbEntity
  8
0-7
  6
Continuous
 62
     7
370
     9
100
AcDbLine
 10
-3615.50009678506
 20
1096.42886209672
 30
0.0
 11
-3620.35909678506
 21
1108.69186209672
 31
0.0
  0
LINE
  5
18B
330
1F
100
AcDbEntity
  8
0-7
  6
Continuous
 62
     7
370
     9
100
AcDbLine
 10
-3577.50009678506
 20
1108.428862096717
 30
0.0
 11
-3574.500096785058
 21
1111.428862096718
 31
0.0
  0
LINE
  5
18C
330
1F
100
AcDbEntity
  8
0-7
  6
Continuous
 62
     7
370
     9
100
AcDbLine
 10
-3554.500096785059
 20
1096.42886209672
 30
0.0
 11
-3600.500096785063
 21
1096.42886209672
 31
0.0
  0
LINE
  5
18D
330
1F
100
AcDbEntity
  8
0-7
  6
Continuous
 62
     7
370
     9
100
AcDbLine
 10
-3593.500096785063
 20
1114.428862096718
 30
0.0
 11
-3593.500096785063
 21
1139.427862096718
 31
0.0
  0
LINE
  5
18E
330
1F
100
AcDbEntity
  8
0-7
  6
Continuous
 62
     7
370
     9
100
AcDbLine
 10
-3561.500096785058
 20
1114.428862096718
 30
0.0
 11
-3561.500096785058
 21
1139.427862096718
 31
0.0
  0
LINE
  5
18F
330
1F
100
AcDbEntity
  8
0-7
  6
Continuous
 62
     7
370
     9
100
AcDbLine
 10
-3622.50009678506
 20
1146.427862096719
 30
0.0
 11
-3622.50009678506
 21
1156.427862096718
 31
0.0
  0
LINE
  5
190
330
1F
100
AcDbEntity
  8
0-7
  6
Continuous
 62
     7
370
     9
100
AcDbLine
 10
-3622.50009678506
 20
1156.427862096718
 30
0.0
 11
-3617.071096785061
 21
1156.427862096718
 31
0.0
  0
MTEXT
  5
191
330
1F
100
AcDbEntity
  8
0-A
  6
Continuous
 62
     7
370
     9
100
AcDbMText
 10
-2314.999830916126
 20
3553.844026901606
 30
0.0
 40
68.58000000000001
 41
720.0
 46
0.0
 71
     7
 72
     1
  1
{\fＭＳ ゴシック|b0|i0|c128|p49;3,560×148×30.0}
 73
     1
 44
1.0
  0
MTEXT
  5
192
330
1F
100
AcDbEntity
  8
0-A
  6
Continuous
 62
     7
370
     9
100
AcDbMText
 10
-417.4998309161262
 20
3553.844026901606
 30
0.0
 40
68.58
 41
45.0
 46
0.0
 71
     7
 72
     1
  1
{\fＭＳ ゴシック|b0|i0|c128|p49;1}
 73
     1
 44
1.0
  0
MTEXT
  5
193
330
1F
100
AcDbEntity
  8
0-A
  6
Continuous
 62
     7
370
     9
100
AcDbMText
 10
-4700.000028867983
 20
3545.720624270055
 30
0.0
 40
91.44
 41
360.0
 46
0.0
 71
     7
 72
     1
  1
{\fＭＳ ゴシック|b0|i0|c128|p49;調整枠}
 73
     1
 44
1.0
  0
MTEXT
  5
194
330
1F
100
AcDbEntity
  8
0-A
  6
Continuous
 62
     7
370
     0
100
AcDbMText
 10
-4894.999100968649
 20
2864.29182197129
 30
0.0
 40
91.44
 41
480.0
 46
0.0
 71
     7
 72
     1
  1
{\f@ＭＳ ゴシック|b0|i0|c128|p49;鴨居・・}
 11
-1.836909530733566E-16
 21
-1.0
 31
0.0
 73
     1
 44
1.0
  0
MTEXT
  5
195
330
1F
100
AcDbEntity
  8
0-A
  6
Continuous
 62
     7
370
     9
100
AcDbMText
 10
-417.4998309161262
 20
2482.415386985226
 30
0.0
 40
68.58
 41
45.0
 46
0.0
 71
     7
 72
     1
  1
{\fＭＳ ゴシック|b0|i0|c128|p49;1}
 73
     1
 44
1.0
  0
MTEXT
  5
196
330
1F
100
AcDbEntity
  8
0-A
  6
Continuous
 62
     7
370
     9
100
AcDbMText
 10
-2314.999830916126
 20
1410.986747068849
 30
0.0
 40
68.58000000000001
 41
720.0
 46
0.0
 71
     7
 72
     1
  1
{\fＭＳ ゴシック|b0|i0|c128|p49;3,600×111×15.0}
 73
     1
 44
1.0
  0
MTEXT
  5
197
330
1F
100
AcDbEntity
  8
0-A
  6
Continuous
 62
     7
370
     9
100
AcDbMText
 10
-417.4998309161262
 20
1410.986747068849
 30
0.0
 40
68.58
 41
45.0
 46
0.0
 71
     7
 72
     1
  1
{\fＭＳ ゴシック|b0|i0|c128|p49;1}
 73
     1
 44
1.0
  0
MTEXT
  5
198
330
1F
100
AcDbEntity
  8
0-B
  6
Continuous
 62
     7
370
   211
100
AcDbMText
 10
-3978.249929892056
 20
1300.005112096719
 30
0.0
 40
77.15249999999999
 41
202.5
 46
0.0
 71
     7
 72
     1
  1
{\fＭＳ ゴシック|b0|i0|c128|p49;50.1}
 73
     1
 44
1.0
  0
MTEXT
  5
199
330
1F
100
AcDbEntity
  8
0-B
  6
Continuous
 62
     7
370
   211
100
AcDbMText
 10
-3652.50009678506
 20
1299.528862096719
 30
0.0
 40
76.19999999999999
 41
150.0
 46
0.0
 71
     7
 72
     1
  1
{\fＭＳ ゴシック|b0|i0|c128|p49;8.8}
 73
     1
 44
1.0
  0
MTEXT
  5
19A
330
1F
100
AcDbEntity
  8
0-B
  6
Continuous
 62
     7
370
   211
100
AcDbMText
 10
-3272.499762999049
 20
1299.528862096719
 30
0.0
 40
76.19999999999999
 41
150.0
 46
0.0
 71
     7
 72
     1
  1
{\fＭＳ ゴシック|b0|i0|c128|p49;8.8}
 73
     1
 44
1.0
  0
MTEXT
  5
19B
330
1F
100
AcDbEntity
  8
0-B
  6
Continuous
 62
     7
370
   211
100
AcDbMText
 10
-2992.499929892055
 20
1300.005112096719
 30
0.0
 40
77.15249999999999
 41
202.5
 46
0.0
 71
     7
 72
     1
  1
{\fＭＳ ゴシック|b0|i0|c128|p49;14.1}
 73
     1
 44
1.0
  0
MTEXT
  5
19C
330
1F
100
AcDbEntity
  8
0-B
  6
Continuous
 62
     7
370
   211
100
AcDbMText
 10
-3488.75009678506
 20
1200.005112096719
 30
0.0
 40
77.15249999999935
 41
202.4999999999983
 46
0.0
 71
     7
 72
     1
  1
{\fＭＳ ゴシック|b0|i0|c128|p49;29.2}
 73
     1
 44
1.0
  0
MTEXT
  5
19D
330
1F
100
AcDbEntity
  8
0-B
  6
Continuous
 62
     7
370
   211
100
AcDbMText
 10
-4267.499929892056
 20
1151.078313399717
 30
0.0
 40
68.58
 41
45.0
 46
0.0
 71
     7
 72
     1
  1
{\fＭＳ ゴシック|b0|i0|c128|p49;3}
 11
6.123031769111886E-17
 21
1.0
 31
0.0
 73
     1
 44
1.0
  0
MTEXT
  5
19E
330
1F
100
AcDbEntity
  8
0-B
  6
Continuous
 62
     7
370
   211
100
AcDbMText
 10
-3777.499596106044
 20
1093.218862096719
 30
0.0
 40
68.58
 41
45.0
 46
0.0
 71
     7
 72
     1
  1
{\fＭＳ ゴシック|b0|i0|c128|p49;6}
 11
6.123031769111886E-17
 21
1.0
 31
0.0
 73
     1
 44
1.0
  0
MTEXT
  5
19F
330
1F
100
AcDbEntity
  8
0-B
  6
Continuous
 62
     7
370
   211
100
AcDbMText
 10
-4367.499929892055
 20
1024.82636209672
 30
0.0
 40
74.295
 41
97.5
 46
0.0
 71
     7
 72
     1
  1
{\fＭＳ ゴシック|b0|i0|c128|p49;15}
 11
6.123031769111886E-17
 21
1.0
 31
0.0
 73
     1
 44
1.0
  0
MTEXT
  5
1A0
330
1F
100
AcDbEntity
  8
0-B
  6
Continuous
 62
     7
370
   211
100
AcDbMText
 10
-4267.499929892056
 20
1009.825937711649
 30
0.0
 40
74.295
 41
97.5
 46
0.0
 71
     7
 72
     1
  1
{\fＭＳ ゴシック|b0|i0|c128|p49;12}
 11
6.123031769111886E-17
 21
1.0
 31
0.0
 73
     1
 44
1.0
  0
MTEXT
  5
1A1
330
1F
100
AcDbEntity
  8
0-B
  6
Continuous
 62
     7
370
   211
100
AcDbMText
 10
-4124.999929892054
 20
845.7188620967206
 30
0.0
 40
68.58
 41
45.0
 46
0.0
 71
     7
 72
     1
  1
{\fＭＳ ゴシック|b0|i0|c128|p49;4}
 73
     1
 44
1.0
  0
MTEXT
  5
1A2
330
1F
100
AcDbEntity
  8
0-B
  6
Continuous
 62
     7
370
   211
100
AcDbMText
 10
-3642.499929892054
 20
849.5288620967207
 30
0.0
 40
76.19999999999999
 41
150.0
 46
0.0
 71
     7
 72
     1
  1
{\fＭＳ ゴシック|b0|i0|c128|p49;103}
 73
     1
 44
1.0
  0
MTEXT
  5
1A3
330
1F
100
AcDbEntity
  8
0-B
  6
Continuous
 62
     7
370
   211
100
AcDbMText
 10
-3054.999929892055
 20
845.7188620967206
 30
0.0
 40
68.58
 41
45.0
 46
0.0
 71
     7
 72
     1
  1
{\fＭＳ ゴシック|b0|i0|c128|p49;4}
 73
     1
 44
1.0
  0
LWPOLYLINE
  5
1A4
330
1F
100
AcDbEntity
  8
0-B
  6
Continuous
 62
     7
370
     9
100
AcDbPolyline
 90
        4
 70
     1
 43
3.0
 10
-2760.99946594239
 20
2817.143099574968
 42
0.4142135623731
 10
-2762.49946594239
 20
2818.643099574968
 42
0.4142135623731
 10
-2763.99946594239
 20
2817.143099574968
 42
0.4142135623731
 10
-2762.49946594239
 20
2815.643099574968
 42
0.4142135623731
  0
LINE
  5
1A5
330
1F
100
AcDbEntity
  8
0-B
  6
Continuous
 62
   120
370
     5
100
AcDbLine
 10
-2978.49946594239
 20
2817.143099574968
 30
0.0
 11
-2762.49946594239
 21
2817.143099574968
 31
0.0
  0
LINE
  5
1A6
330
1F
100
AcDbEntity
  8
0-B
  6
Continuous
 62
   120
370
     5
100
AcDbLine
 10
-2978.49946594239
 20
2817.143099574968
 30
0.0
 11
-2978.49946594239
 21
2917.143099574967
 31
0.0
  0
LWPOLYLINE
  5
1A7
330
1F
100
AcDbEntity
  8
0-B
  6
Continuous
 62
     7
370
     9
100
AcDbPolyline
 90
        4
 70
     1
 43
3.0
 10
-2976.99946594239
 20
2817.143099574968
 42
0.4142135623731
 10
-2978.49946594239
 20
2818.643099574968
 42
0.4142135623731
 10
-2979.999465942389
 20
2817.143099574968
 42
0.4142135623731
 10
-2978.49946594239
 20
2815.643099574968
 42
0.4142135623731
  0
LINE
  5
1A8
330
1F
100
AcDbEntity
  8
0-B
  6
Continuous
 62
   120
370
     5
100
AcDbLine
 10
-3266.49946594239
 20
2817.143099574968
 30
0.0
 11
-2978.49946594239
 21
2817.143099574968
 31
0.0
  0
LINE
  5
1A9
330
1F
100
AcDbEntity
  8
0-B
  6
Continuous
 62
   120
370
     5
100
AcDbLine
 10
-3266.49946594239
 20
2817.143099574968
 30
0.0
 11
-3266.49946594239
 21
2917.143099574967
 31
0.0
  0
LWPOLYLINE
  5
1AA
330
1F
100
AcDbEntity
  8
0-B
  6
Continuous
 62
     7
370
     9
100
AcDbPolyline
 90
        4
 70
     1
 43
3.0
 10
-3264.99946594239
 20
2817.143099574968
 42
0.4142135623731
 10
-3266.49946594239
 20
2818.643099574968
 42
0.4142135623731
 10
-3267.99946594239
 20
2817.143099574968
 42
0.4142135623731
 10
-3266.49946594239
 20
2815.643099574968
 42
0.4142135623731
  0
LINE
  5
1AB
330
1F
100
AcDbEntity
  8
0-B
  6
Continuous
 62
   120
370
     5
100
AcDbLine
 10
-3358.49946594239
 20
2817.143099574968
 30
0.0
 11
-3266.49946594239
 21
2817.143099574968
 31
0.0
  0
LINE
  5
1AC
330
1F
100
AcDbEntity
  8
0-B
  6
Continuous
 62
   120
370
     5
100
AcDbLine
 10
-3358.49946594239
 20
2817.143099574968
 30
0.0
 11
-3358.49946594239
 21
2917.143099574967
 31
0.0
  0
LWPOLYLINE
  5
1AD
330
1F
100
AcDbEntity
  8
0-B
  6
Continuous
 62
     7
370
     9
100
AcDbPolyline
 90
        4
 70
     1
 43
3.0
 10
-3356.99946594239
 20
2817.143099574968
 42
0.4142135623731
 10
-3358.49946594239
 20
2818.643099574968
 42
0.4142135623731
 10
-3359.99946594239
 20
2817.143099574968
 42
0.4142135623731
 10
-3358.49946594239
 20
2815.643099574968
 42
0.4142135623731
  0
LINE
  5
1AE
330
1F
100
AcDbEntity
  8
0-B
  6
Continuous
 62
   120
370
     5
100
AcDbLine
 10
-3646.499465942389
 20
2817.143099574968
 30
0.0
 11
-3358.49946594239
 21
2817.143099574968
 31
0.0
  0
LINE
  5
1AF
330
1F
100
AcDbEntity
  8
0-B
  6
Continuous
 62
   120
370
     5
100
AcDbLine
 10
-3646.499465942389
 20
2817.143099574968
 30
0.0
 11
-3646.499465942389
 21
2917.143099574967
 31
0.0
  0
LWPOLYLINE
  5
1B0
330
1F
100
AcDbEntity
  8
0-B
  6
Continuous
 62
     7
370
     9
100
AcDbPolyline
 90
        4
 70
     1
 43
3.0
 10
-3644.999465942389
 20
2817.143099574968
 42
0.4142135623731
 10
-3646.499465942389
 20
2818.643099574968
 42
0.4142135623731
 10
-3647.999465942388
 20
2817.143099574968
 42
0.4142135623731
 10
-3646.499465942389
 20
2815.643099574968
 42
0.4142135623731
  0
LWPOLYLINE
  5
1B1
330
1F
100
AcDbEntity
  8
0-B
  6
Continuous
 62
     7
370
     9
100
AcDbPolyline
 90
        4
 70
     1
 43
3.0
 10
-4240.99946594239
 20
2817.143099574968
 42
0.4142135623731
 10
-4242.49946594239
 20
2818.643099574968
 42
0.4142135623731
 10
-4243.999465942391
 20
2817.143099574968
 42
0.4142135623731
 10
-4242.49946594239
 20
2815.643099574968
 42
0.4142135623731
  0
LINE
  5
1B2
330
1F
100
AcDbEntity
  8
0-B
  6
Continuous
 62
   120
370
     5
100
AcDbLine
 10
-4242.49946594239
 20
2817.143099574968
 30
0.0
 11
-3646.499465942389
 21
2817.143099574968
 31
0.0
  0
LINE
  5
1B3
330
1F
100
AcDbEntity
  8
0-4
  6
Continuous
 62
    92
370
    13
100
AcDbLine
 10
-2762.49946594239
 20
3217.143099574967
 30
0.0
 11
-2762.49946594239
 21
3267.143099574968
 31
0.0
  0
LINE
  5
1B4
330
1F
100
AcDbEntity
  8
0-4
  6
Continuous
 62
    92
370
    13
100
AcDbLine
 10
-2862.499465942389
 20
3217.143099574967
 30
0.0
 11
-2762.49946594239
 21
3217.143099574967
 31
0.0
  0
LINE
  5
1B5
330
1F
100
AcDbEntity
  8
0-4
  6
Continuous
 62
    92
370
    13
100
AcDbLine
 10
-2862.499465942389
 20
3127.143099574967
 30
0.0
 11
-2762.49946594239
 21
3127.143099574967
 31
0.0
  0
LINE
  5
1B6
330
1F
100
AcDbEntity
  8
0-4
  6
Continuous
 62
    92
370
    13
100
AcDbLine
 10
-2762.49946594239
 20
2967.143099574968
 30
0.0
 11
-2762.49946594239
 21
3127.143099574967
 31
0.0
  0
LINE
  5
1B7
330
1F
100
AcDbEntity
  8
0-4
  6
Continuous
 62
    92
370
    13
100
AcDbLine
 10
-4242.49946594239
 20
3127.143099574967
 30
0.0
 11
-4242.49946594239
 21
2967.143099574968
 31
0.0
  0
LINE
  5
1B8
330
1F
100
AcDbEntity
  8
0-4
  6
Continuous
 62
    92
370
    13
100
AcDbLine
 10
-4142.49946594239
 20
3127.143099574967
 30
0.0
 11
-4242.49946594239
 21
3127.143099574967
 31
0.0
  0
LINE
  5
1B9
330
1F
100
AcDbEntity
  8
0-4
  6
Continuous
 62
    92
370
    13
100
AcDbLine
 10
-4242.49946594239
 20
3267.143099574968
 30
0.0
 11
-4242.49946594239
 21
3217.143099574967
 31
0.0
  0
LINE
  5
1BA
330
1F
100
AcDbEntity
  8
0-4
  6
Continuous
 62
    92
370
    13
100
AcDbLine
 10
-4142.49946594239
 20
3217.143099574967
 30
0.0
 11
-4242.49946594239
 21
3217.143099574967
 31
0.0
  0
LINE
  5
1BB
330
1F
100
AcDbEntity
  8
0-4
  6
Continuous
 62
    92
370
    13
100
AcDbLine
 10
-2862.499465942389
 20
3217.143099574967
 30
0.0
 11
-2862.499465942389
 21
3127.143099574967
 31
0.0
  0
LINE
  5
1BC
330
1F
100
AcDbEntity
  8
0-4
  6
Continuous
 62
    92
370
    13
100
AcDbLine
 10
-4142.49946594239
 20
3217.143099574967
 30
0.0
 11
-4142.49946594239
 21
3127.143099574967
 31
0.0
  0
LINE
  5
1BD
330
1F
100
AcDbEntity
  8
0-B
  6
Continuous
 62
   120
370
     5
100
AcDbLine
 10
-4497.49946594239
 20
2967.143099574967
 30
0.0
 11
-4297.49946594239
 21
2967.143099574967
 31
0.0
  0
LINE
  5
1BE
330
1F
100
AcDbEntity
  8
0-B
  6
Continuous
 62
   120
370
     5
100
AcDbLine
 10
-4497.49946594239
 20
3267.143099574967
 30
0.0
 11
-4297.49946594239
 21
3267.143099574967
 31
0.0
  0
LWPOLYLINE
  5
1BF
330
1F
100
AcDbEntity
  8
0-B
  6
Continuous
 62
     7
370
     9
100
AcDbPolyline
 90
        4
 70
     1
 43
3.0
 10
-4495.99946594239
 20
2967.143099574967
 42
0.4142135623731
 10
-4497.49946594239
 20
2968.643099574967
 42
0.4142135623731
 10
-4498.999465942391
 20
2967.143099574967
 42
0.4142135623731
 10
-4497.49946594239
 20
2965.643099574967
 42
0.4142135623731
  0
LWPOLYLINE
  5
1C0
330
1F
100
AcDbEntity
  8
0-B
  6
Continuous
 62
     7
370
     9
100
AcDbPolyline
 90
        4
 70
     1
 43
3.0
 10
-4495.99946594239
 20
3267.143099574967
 42
0.4142135623731
 10
-4497.49946594239
 20
3268.643099574967
 42
0.4142135623731
 10
-4498.999465942391
 20
3267.143099574967
 42
0.4142135623731
 10
-4497.49946594239
 20
3265.643099574967
 42
0.4142135623731
  0
LINE
  5
1C1
330
1F
100
AcDbEntity
  8
0-B
  6
Continuous
 62
   120
370
     5
100
AcDbLine
 10
-4497.49946594239
 20
3267.143099574967
 30
0.0
 11
-4497.49946594239
 21
2967.143099574967
 31
0.0
  0
LWPOLYLINE
  5
1C2
330
1F
100
AcDbEntity
  8
0-B
  6
Continuous
 62
     7
370
     9
100
AcDbPolyline
 90
        4
 70
     1
 43
3.0
 10
-4395.99946594239
 20
2967.143099574967
 42
0.4142135623731
 10
-4397.49946594239
 20
2968.643099574967
 42
0.4142135623731
 10
-4398.99946594239
 20
2967.143099574967
 42
0.4142135623731
 10
-4397.49946594239
 20
2965.643099574967
 42
0.4142135623731
  0
LINE
  5
1C3
330
1F
100
AcDbEntity
  8
0-B
  6
Continuous
 62
   120
370
     5
100
AcDbLine
 10
-4397.49946594239
 20
3127.143099574967
 30
0.0
 11
-4397.49946594239
 21
2967.143099574967
 31
0.0
  0
LINE
  5
1C4
330
1F
100
AcDbEntity
  8
0-B
  6
Continuous
 62
   120
370
     5
100
AcDbLine
 10
-4397.49946594239
 20
3127.143099574967
 30
0.0
 11
-4297.49946594239
 21
3127.143099574967
 31
0.0
  0
LWPOLYLINE
  5
1C5
330
1F
100
AcDbEntity
  8
0-B
  6
Continuous
 62
     7
370
     9
100
AcDbPolyline
 90
        4
 70
     1
 43
3.0
 10
-4395.99946594239
 20
3127.143099574967
 42
0.4142135623731
 10
-4397.49946594239
 20
3128.643099574967
 42
0.4142135623731
 10
-4398.99946594239
 20
3127.143099574967
 42
0.4142135623731
 10
-4397.49946594239
 20
3125.643099574967
 42
0.4142135623731
  0
LINE
  5
1C6
330
1F
100
AcDbEntity
  8
0-B
  6
Continuous
 62
   120
370
     5
100
AcDbLine
 10
-4397.49946594239
 20
3217.143099574967
 30
0.0
 11
-4397.49946594239
 21
3127.143099574967
 31
0.0
  0
LINE
  5
1C7
330
1F
100
AcDbEntity
  8
0-B
  6
Continuous
 62
   120
370
     5
100
AcDbLine
 10
-4397.49946594239
 20
3217.143099574967
 30
0.0
 11
-4297.49946594239
 21
3217.143099574967
 31
0.0
  0
LWPOLYLINE
  5
1C8
330
1F
100
AcDbEntity
  8
0-B
  6
Continuous
 62
     7
370
     9
100
AcDbPolyline
 90
        4
 70
     1
 43
3.0
 10
-4395.99946594239
 20
3217.143099574967
 42
0.4142135623731
 10
-4397.49946594239
 20
3218.643099574967
 42
0.4142135623731
 10
-4398.99946594239
 20
3217.143099574967
 42
0.4142135623731
 10
-4397.49946594239
 20
3215.643099574967
 42
0.4142135623731
  0
LWPOLYLINE
  5
1C9
330
1F
100
AcDbEntity
  8
0-B
  6
Continuous
 62
     7
370
     9
100
AcDbPolyline
 90
        4
 70
     1
 43
3.0
 10
-4395.99946594239
 20
3267.143099574967
 42
0.4142135623731
 10
-4397.49946594239
 20
3268.643099574967
 42
0.4142135623731
 10
-4398.99946594239
 20
3267.143099574967
 42
0.4142135623731
 10
-4397.49946594239
 20
3265.643099574967
 42
0.4142135623731
  0
LINE
  5
1CA
330
1F
100
AcDbEntity
  8
0-B
  6
Continuous
 62
   120
370
     5
100
AcDbLine
 10
-4397.49946594239
 20
3267.143099574967
 30
0.0
 11
-4397.49946594239
 21
3217.143099574967
 31
0.0
  0
LINE
  5
1CB
330
1F
100
AcDbEntity
  8
0-B
  6
Continuous
 62
   120
370
     5
100
AcDbLine
 10
-4142.499465942389
 20
3417.143099574967
 30
0.0
 11
-4142.499465942389
 21
3317.143099574967
 31
0.0
  0
LINE
  5
1CC
330
1F
100
AcDbEntity
  8
0-B
  6
Continuous
 62
   120
370
     5
100
AcDbLine
 10
-4242.49946594239
 20
3417.143099574967
 30
0.0
 11
-4242.49946594239
 21
3317.143099574967
 31
0.0
  0
LWPOLYLINE
  5
1CD
330
1F
100
AcDbEntity
  8
0-B
  6
Continuous
 62
     7
370
     9
100
AcDbPolyline
 90
        4
 70
     1
 43
3.0
 10
-4140.999465942389
 20
3417.143099574967
 42
0.4142135623731
 10
-4142.499465942389
 20
3418.643099574967
 42
0.4142135623731
 10
-4143.99946594239
 20
3417.143099574967
 42
0.4142135623731
 10
-4142.499465942389
 20
3415.643099574967
 42
0.4142135623731
  0
LWPOLYLINE
  5
1CE
330
1F
100
AcDbEntity
  8
0-B
  6
Continuous
 62
     7
370
     9
100
AcDbPolyline
 90
        4
 70
     1
 43
3.0
 10
-4240.99946594239
 20
3417.143099574967
 42
0.4142135623731
 10
-4242.49946594239
 20
3418.643099574967
 42
0.4142135623731
 10
-4243.999465942391
 20
3417.143099574967
 42
0.4142135623731
 10
-4242.49946594239
 20
3415.643099574967
 42
0.4142135623731
  0
LINE
  5
1CF
330
1F
100
AcDbEntity
  8
0-B
  6
Continuous
 62
   120
370
     5
100
AcDbLine
 10
-4242.49946594239
 20
3417.143099574967
 30
0.0
 11
-4142.499465942389
 21
3417.143099574967
 31
0.0
  0
LINE
  5
1D0
330
1F
100
AcDbEntity
  8
0-4
  6
Continuous
 62
    92
370
    13
100
AcDbLine
 10
-2978.49946594239
 20
2967.143099574968
 30
0.0
 11
-2762.49946594239
 21
2967.143099574968
 31
0.0
  0
LINE
  5
1D1
330
1F
100
AcDbEntity
  8
0-4
  6
Continuous
 62
    92
370
    13
100
AcDbLine
 10
-4242.49946594239
 20
2967.143099574968
 30
0.0
 11
-3646.499465942389
 21
2967.143099574968
 31
0.0
  0
LINE
  5
1D2
330
1F
100
AcDbEntity
  8
0-B
  6
Continuous
 62
   120
370
     5
100
AcDbLine
 10
-3122.49946594239
 20
3127.143099574967
 30
0.0
 11
-3068.49946594239
 21
3127.143099574967
 31
0.0
  0
LINE
  5
1D3
330
1F
100
AcDbEntity
  8
0-B
  6
Continuous
 62
   120
370
     5
100
AcDbLine
 10
-3122.49946594239
 20
2967.143099574968
 30
0.0
 11
-3068.49946594239
 21
2967.143099574968
 31
0.0
  0
LWPOLYLINE
  5
1D4
330
1F
100
AcDbEntity
  8
0-B
  6
Continuous
 62
     7
370
     9
100
AcDbPolyline
 90
        4
 70
     1
 43
3.0
 10
-3120.99946594239
 20
3127.143099574967
 42
0.4142135623731
 10
-3122.49946594239
 20
3128.643099574967
 42
0.4142135623731
 10
-3123.99946594239
 20
3127.143099574967
 42
0.4142135623731
 10
-3122.49946594239
 20
3125.643099574967
 42
0.4142135623731
  0
LWPOLYLINE
  5
1D5
330
1F
100
AcDbEntity
  8
0-B
  6
Continuous
 62
     7
370
     9
100
AcDbPolyline
 90
        4
 70
     1
 43
3.0
 10
-3120.99946594239
 20
2967.143099574968
 42
0.4142135623731
 10
-3122.49946594239
 20
2968.643099574968
 42
0.4142135623731
 10
-3123.99946594239
 20
2967.143099574968
 42
0.4142135623731
 10
-3122.49946594239
 20
2965.643099574968
 42
0.4142135623731
  0
LINE
  5
1D6
330
1F
100
AcDbEntity
  8
0-B
  6
Continuous
 62
   120
370
     5
100
AcDbLine
 10
-3122.49946594239
 20
2967.143099574968
 30
0.0
 11
-3122.49946594239
 21
3127.143099574967
 31
0.0
  0
LINE
  5
1D7
330
1F
100
AcDbEntity
  8
0-4
  6
Continuous
 62
    92
370
    13
100
AcDbLine
 10
-2762.49946594239
 20
3267.143099574968
 30
0.0
 11
-4242.49946594239
 21
3267.143099574968
 31
0.0
  0
LINE
  5
1D8
330
1F
100
AcDbEntity
  8
0-0
  6
JWW_HOJO
 62
   120
370
     5
100
AcDbLine
 10
-2707.499465942391
 20
3317.143099574968
 30
0.0
 11
-4297.49946594239
 21
3317.143099574968
 31
0.0
  0
LINE
  5
1D9
330
1F
100
AcDbEntity
  8
0-0
  6
JWW_HOJO
 62
   120
370
     5
100
AcDbLine
 10
-2607.499465942389
 20
2717.143099574968
 30
0.0
 11
-4497.499465942389
 21
2717.143099574968
 31
0.0
  0
LINE
  5
1DA
330
1F
100
AcDbEntity
  8
0-4
  6
Continuous
 62
    92
370
    13
100
AcDbLine
 10
-2978.49946594239
 20
3127.143099574967
 30
0.0
 11
-2978.49946594239
 21
2967.143099574968
 31
0.0
  0
LINE
  5
1DB
330
1F
100
AcDbEntity
  8
0-4
  6
Continuous
 62
    92
370
    13
100
AcDbLine
 10
-3358.49946594239
 20
3127.143099574967
 30
0.0
 11
-3358.49946594239
 21
2967.143099574968
 31
0.0
  0
LINE
  5
1DC
330
1F
100
AcDbEntity
  8
0-4
  6
Continuous
 62
    92
370
    13
100
AcDbLine
 10
-3358.49946594239
 20
2967.143099574968
 30
0.0
 11
-3266.49946594239
 21
2967.143099574968
 31
0.0
  0
LINE
  5
1DD
330
1F
100
AcDbEntity
  8
0-4
  6
Continuous
 62
    92
370
    13
100
AcDbLine
 10
-3646.499465942389
 20
3127.143099574967
 30
0.0
 11
-3646.499465942389
 21
2967.143099574968
 31
0.0
  0
LINE
  5
1DE
330
1F
100
AcDbEntity
  8
0-4
  6
Continuous
 62
    92
370
    13
100
AcDbLine
 10
-2953.49946594239
 20
2972.143099574968
 30
0.0
 11
-2953.49946594239
 21
2967.143099574968
 31
0.0
  0
LINE
  5
1DF
330
1F
100
AcDbEntity
  8
0-4
  6
Continuous
 62
    92
370
    13
100
AcDbLine
 10
-2973.499465942389
 20
2972.143099574968
 30
0.0
 11
-2953.49946594239
 21
2972.143099574968
 31
0.0
  0
LINE
  5
1E0
330
1F
100
AcDbEntity
  8
0-4
  6
Continuous
 62
    92
370
    13
100
AcDbLine
 10
-3651.499465942389
 20
3132.143099574968
 30
0.0
 11
-3651.499465942389
 21
2972.143099574968
 31
0.0
  0
LINE
  5
1E1
330
1F
100
AcDbEntity
  8
0-4
  6
Continuous
 62
    92
370
    13
100
AcDbLine
 10
-3671.49946594239
 20
2972.143099574968
 30
0.0
 11
-3651.499465942389
 21
2972.143099574968
 31
0.0
  0
LINE
  5
1E2
330
1F
100
AcDbEntity
  8
0-4
  6
Continuous
 62
    92
370
    13
100
AcDbLine
 10
-3671.49946594239
 20
2972.143099574968
 30
0.0
 11
-3671.49946594239
 21
2967.143099574968
 31
0.0
  0
LINE
  5
1E3
330
1F
100
AcDbEntity
  8
0-4
  6
Continuous
 62
    92
370
    13
100
AcDbLine
 10
-3651.499465942389
 20
3132.143099574968
 30
0.0
 11
-3353.49946594239
 21
3132.143099574968
 31
0.0
  0
LINE
  5
1E4
330
1F
100
AcDbEntity
  8
0-4
  6
Continuous
 62
    92
370
    13
100
AcDbLine
 10
-3353.49946594239
 20
3132.143099574968
 30
0.0
 11
-3353.49946594239
 21
2972.143099574968
 31
0.0
  0
LINE
  5
1E5
330
1F
100
AcDbEntity
  8
0-4
  6
Continuous
 62
    92
370
    13
100
AcDbLine
 10
-3353.49946594239
 20
2972.143099574968
 30
0.0
 11
-3271.499465942389
 21
2972.143099574968
 31
0.0
  0
LINE
  5
1E6
330
1F
100
AcDbEntity
  8
0-4
  6
Continuous
 62
    92
370
    13
100
AcDbLine
 10
-3271.499465942389
 20
3132.143099574968
 30
0.0
 11
-3271.499465942389
 21
2972.143099574968
 31
0.0
  0
LINE
  5
1E7
330
1F
100
AcDbEntity
  8
0-4
  6
Continuous
 62
    92
370
    13
100
AcDbLine
 10
-3271.499465942389
 20
3132.143099574968
 30
0.0
 11
-2973.499465942389
 21
3132.143099574968
 31
0.0
  0
LINE
  5
1E8
330
1F
100
AcDbEntity
  8
0-4
  6
Continuous
 62
    92
370
    13
100
AcDbLine
 10
-2973.499465942389
 20
3132.143099574968
 30
0.0
 11
-2973.499465942389
 21
2972.143099574968
 31
0.0
  0
LINE
  5
1E9
330
1F
100
AcDbEntity
  8
0-4
  6
Continuous
 62
    92
370
    13
100
AcDbLine
 10
-3266.49946594239
 20
3127.143099574967
 30
0.0
 11
-3266.49946594239
 21
2967.143099574968
 31
0.0
  0
LINE
  5
1EA
330
1F
100
AcDbEntity
  8
0-4
  6
Continuous
 62
    92
370
    13
100
AcDbLine
 10
-3266.49946594239
 20
3127.143099574967
 30
0.0
 11
-2978.49946594239
 21
3127.143099574967
 31
0.0
  0
LINE
  5
1EB
330
1F
100
AcDbEntity
  8
0-4
  6
Continuous
 62
    92
370
    13
100
AcDbLine
 10
-3646.499465942389
 20
3127.143099574967
 30
0.0
 11
-3358.49946594239
 21
3127.143099574967
 31
0.0
  0
MTEXT
  5
1EC
330
1F
100
AcDbEntity
  8
0-B
  6
Continuous
 62
     7
370
   211
100
AcDbMText
 10
-4241.24946594239
 20
3409.290599574967
 30
0.0
 40
74.295
 41
97.5
 46
0.0
 71
     7
 72
     1
  1
{\fＭＳ ゴシック|b0|i0|c128|p49;10}
 73
     1
 44
1.0
  0
MTEXT
  5
1ED
330
1F
100
AcDbEntity
  8
0-B
  6
Continuous
 62
     7
370
   211
100
AcDbMText
 10
-4397.49946594239
 20
3208.933099574967
 30
0.0
 40
68.58
 41
45.0
 46
0.0
 71
     7
 72
     1
  1
{\fＭＳ ゴシック|b0|i0|c128|p49;5}
 11
6.123031769111886E-17
 21
1.0
 31
0.0
 73
     1
 44
1.0
  0
MTEXT
  5
1EE
330
1F
100
AcDbEntity
  8
0-B
  6
Continuous
 62
     7
370
   211
100
AcDbMText
 10
-4397.49946594239
 20
3138.933099574967
 30
0.0
 40
68.58
 41
45.0
 46
0.0
 71
     7
 72
     1
  1
{\fＭＳ ゴシック|b0|i0|c128|p49;9}
 11
6.123031769111886E-17
 21
1.0
 31
0.0
 73
     1
 44
1.0
  0
MTEXT
  5
1EF
330
1F
100
AcDbEntity
  8
0-B
  6
Continuous
 62
     7
370
   211
100
AcDbMText
 10
-4497.49946594239
 20
3060.540599574967
 30
0.0
 40
74.295
 41
97.5
 46
0.0
 71
     7
 72
     1
  1
{\fＭＳ ゴシック|b0|i0|c128|p49;30}
 11
6.123031769111886E-17
 21
1.0
 31
0.0
 73
     1
 44
1.0
  0
MTEXT
  5
1F0
330
1F
100
AcDbEntity
  8
0-B
  6
Continuous
 62
     7
370
   211
100
AcDbMText
 10
-4397.49946594239
 20
2990.540599574967
 30
0.0
 40
74.295
 41
97.5
 46
0.0
 71
     7
 72
     1
  1
{\fＭＳ ゴシック|b0|i0|c128|p49;16}
 11
6.123031769111886E-17
 21
1.0
 31
0.0
 73
     1
 44
1.0
  0
MTEXT
  5
1F1
330
1F
100
AcDbEntity
  8
0-B
  6
Continuous
 62
     7
370
   211
100
AcDbMText
 10
-3122.49946594239
 20
2990.540599574967
 30
0.0
 40
74.295
 41
97.5
 46
0.0
 71
     7
 72
     1
  1
{\fＭＳ ゴシック|b0|i0|c128|p49;16}
 11
6.123031769111886E-17
 21
1.0
 31
0.0
 73
     1
 44
1.0
  0
MTEXT
  5
1F2
330
1F
100
AcDbEntity
  8
0-B
  6
Continuous
 62
     7
370
   211
100
AcDbMText
 10
-4045.74946594239
 20
2810.719349574968
 30
0.0
 40
77.15249999999999
 41
202.5
 46
0.0
 71
     7
 72
     1
  1
{\fＭＳ ゴシック|b0|i0|c128|p49;59.6}
 73
     1
 44
1.0
  0
MTEXT
  5
1F3
330
1F
100
AcDbEntity
  8
0-B
  6
Continuous
 62
     7
370
   211
100
AcDbMText
 10
-2971.74946594239
 20
2810.719349574968
 30
0.0
 40
77.15249999999999
 41
202.5
 46
0.0
 71
     7
 72
     1
  1
{\fＭＳ ゴシック|b0|i0|c128|p49;21.6}
 73
     1
 44
1.0
  0
LINE
  5
1F4
330
1F
100
AcDbEntity
  8
0-B
  6
Continuous
 62
   120
370
     5
100
AcDbLine
 10
-2762.49946594239
 20
3517.143099574968
 30
0.0
 11
-4242.49946594239
 21
3517.143099574968
 31
0.0
  0
LWPOLYLINE
  5
1F5
330
1F
100
AcDbEntity
  8
0-B
  6
Continuous
 62
     7
370
     9
100
AcDbPolyline
 90
        4
 70
     1
 43
3.0
 10
-2760.99946594239
 20
3517.143099574968
 42
0.4142135623731
 10
-2762.49946594239
 20
3518.643099574968
 42
0.4142135623731
 10
-2763.99946594239
 20
3517.143099574968
 42
0.4142135623731
 10
-2762.49946594239
 20
3515.643099574969
 42
0.4142135623731
  0
LWPOLYLINE
  5
1F6
330
1F
100
AcDbEntity
  8
0-B
  6
Continuous
 62
     7
370
     9
100
AcDbPolyline
 90
        4
 70
     1
 43
3.0
 10
-4240.99946594239
 20
3517.143099574968
 42
0.4142135623731
 10
-4242.49946594239
 20
3518.643099574968
 42
0.4142135623731
 10
-4243.999465942391
 20
3517.143099574968
 42
0.4142135623731
 10
-4242.49946594239
 20
3515.643099574969
 42
0.4142135623731
  0
LINE
  5
1F7
330
1F
100
AcDbEntity
  8
0-B
  6
Continuous
 62
   120
370
     5
100
AcDbLine
 10
-2762.49946594239
 20
3517.143099574968
 30
0.0
 11
-2762.49946594239
 21
3417.143099574968
 31
0.0
  0
LINE
  5
1F8
330
1F
100
AcDbEntity
  8
0-B
  6
Continuous
 62
   120
370
     5
100
AcDbLine
 10
-4242.49946594239
 20
3517.143099574968
 30
0.0
 11
-4242.49946594239
 21
3417.143099574968
 31
0.0
  0
MTEXT
  5
1F9
330
1F
100
AcDbEntity
  8
0-B
  6
Continuous
 62
     7
370
   211
100
AcDbMText
 10
-3577.49946594239
 20
3525.243099574968
 30
0.0
 40
76.19999999999999
 41
150.0
 46
0.0
 71
     7
 72
     1
  1
{\fＭＳ ゴシック|b0|i0|c128|p49;148}
 73
     1
 44
1.0
  0
MTEXT
  5
1FA
330
1F
100
AcDbEntity
  8
0-B
  6
Continuous
 62
     7
370
   211
100
AcDbMText
 10
-3603.749465942389
 20
2810.719349574968
 30
0.0
 40
77.15249999999999
 41
202.5
 46
0.0
 71
     7
 72
     1
  1
{\fＭＳ ゴシック|b0|i0|c128|p49;28.8}
 73
     1
 44
1.0
  0
MTEXT
  5
1FB
330
1F
100
AcDbEntity
  8
0-B
  6
Continuous
 62
     7
370
   211
100
AcDbMText
 10
-3223.749465942391
 20
2810.719349574968
 30
0.0
 40
77.15249999999999
 41
202.5
 46
0.0
 71
     7
 72
     1
  1
{\fＭＳ ゴシック|b0|i0|c128|p49;28.8}
 73
     1
 44
1.0
  0
MTEXT
  5
1FC
330
1F
100
AcDbEntity
  8
0-B
  6
Continuous
 62
     7
370
   211
100
AcDbMText
 10
-3387.499465942389
 20
2710.243099574968
 30
0.0
 40
76.19999999999999
 41
150.0
 46
0.0
 71
     7
 72
     1
  1
{\fＭＳ ゴシック|b0|i0|c128|p49;9.2}
 73
     1
 44
1.0
  0
LINE
  5
1FD
330
1F
100
AcDbEntity
  8
0-B
  6
Continuous
 62
   120
370
     5
100
AcDbLine
 10
-4242.49946594239
 20
2817.143099574968
 30
0.0
 11
-4242.49946594239
 21
2917.143099574967
 31
0.0
  0
LINE
  5
1FE
330
1F
100
AcDbEntity
  8
0-B
  6
Continuous
 62
   120
370
     5
100
AcDbLine
 10
-2762.49946594239
 20
2817.143099574968
 30
0.0
 11
-2762.49946594239
 21
2917.143099574967
 31
0.0
  0
LINE
  5
1FF
330
1F
100
AcDbEntity
  8
0-0
  6
JWW_HOJO
 62
   120
370
     5
100
AcDbLine
 10
-4497.499465942389
 20
3517.143099574968
 30
0.0
 11
-4497.499465942389
 21
2717.143099574968
 31
0.0
  0
LINE
  5
200
330
1F
100
AcDbEntity
  8
0-0
  6
JWW_HOJO
 62
   120
370
     5
100
AcDbLine
 10
-2607.499465942389
 20
3517.143099574968
 30
0.0
 11
-4497.499465942389
 21
3517.143099574968
 31
0.0
  0
LINE
  5
201
330
1F
100
AcDbEntity
  8
0-0
  6
JWW_HOJO
 62
   120
370
     5
100
AcDbLine
 10
-2607.499465942389
 20
2717.143099574968
 30
0.0
 11
-2607.499465942389
 21
3517.143099574968
 31
0.0
  0
LINE
  5
202
330
1F
100
AcDbEntity
  8
0-0
  6
JWW_HOJO
 62
   120
370
     5
100
AcDbLine
 10
-2707.499465942391
 20
3417.143099574968
 30
0.0
 11
-2707.499465942391
 21
2917.143099574967
 31
0.0
  0
LINE
  5
203
330
1F
100
AcDbEntity
  8
0-0
  6
JWW_HOJO
 62
   120
370
     5
100
AcDbLine
 10
-2707.499465942391
 20
3417.143099574968
 30
0.0
 11
-4397.499465942391
 21
3417.143099574968
 31
0.0
  0
LINE
  5
204
330
1F
100
AcDbEntity
  8
0-0
  6
JWW_HOJO
 62
   120
370
     5
100
AcDbLine
 10
-4297.49946594239
 20
3317.143099574968
 30
0.0
 11
-4297.49946594239
 21
2917.143099574967
 31
0.0
  0
LINE
  5
205
330
1F
100
AcDbEntity
  8
0-0
  6
JWW_HOJO
 62
   120
370
     5
100
AcDbLine
 10
-2707.499465942391
 20
2917.143099574967
 30
0.0
 11
-4297.49946594239
 21
2917.143099574967
 31
0.0
  0
LINE
  5
206
330
1F
100
AcDbEntity
  8
0-0
  6
JWW_HOJO
 62
   120
370
     5
100
AcDbLine
 10
-2607.499465942389
 20
2817.143099574968
 30
0.0
 11
-4397.499465942391
 21
2817.143099574968
 31
0.0
  0
LINE
  5
207
330
1F
100
AcDbEntity
  8
0-0
  6
JWW_HOJO
 62
   120
370
     5
100
AcDbLine
 10
-4397.499465942391
 20
3417.143099574968
 30
0.0
 11
-4397.499465942391
 21
2817.143099574968
 31
0.0
  0
MTEXT
  5
208
330
1F
100
AcDbEntity
  8
0-A
  6
Continuous
 62
     7
370
     9
100
AcDbMText
 10
-4700.000028867983
 20
2474.291984353676
 30
0.0
 40
91.44
 41
960.0
 46
0.0
 71
     7
 72
     1
  1
{\fＭＳ ゴシック|b0|i0|c128|p49;固定枠１７０幅用}
 73
     1
 44
1.0
  0
MTEXT
  5
209
330
1F
100
AcDbEntity
  8
0-A
  6
Continuous
 62
     7
370
     9
100
AcDbMText
 10
-2314.999830916126
 20
2482.415386985226
 30
0.0
 40
68.58000000000001
 41
720.0
 46
0.0
 71
     7
 72
     1
  1
{\fＭＳ ゴシック|b0|i0|c128|p49;3,560×162×30.0}
 73
     1
 44
1.0
  0
LWPOLYLINE
  5
20A
330
1F
100
AcDbEntity
  8
0-B
  6
Continuous
 62
     7
370
     9
100
AcDbPolyline
 90
        4
 70
     1
 43
3.0
 10
-2774.225272394001
 20
1745.714459658588
 42
0.4142135623731
 10
-2775.725272394001
 20
1747.214459658588
 42
0.4142135623731
 10
-2777.225272394001
 20
1745.714459658588
 42
0.4142135623731
 10
-2775.725272394001
 20
1744.214459658588
 42
0.4142135623731
  0
LINE
  5
20B
330
1F
100
AcDbEntity
  8
0-B
  6
Continuous
 62
   120
370
     5
100
AcDbLine
 10
-3006.725272394001
 20
1745.714459658588
 30
0.0
 11
-2775.725272394001
 21
1745.714459658588
 31
0.0
  0
LINE
  5
20C
330
1F
100
AcDbEntity
  8
0-B
  6
Continuous
 62
   120
370
     5
100
AcDbLine
 10
-3006.725272394001
 20
1745.714459658588
 30
0.0
 11
-3006.725272394001
 21
1845.714459658588
 31
0.0
  0
LWPOLYLINE
  5
20D
330
1F
100
AcDbEntity
  8
0-B
  6
Continuous
 62
     7
370
     9
100
AcDbPolyline
 90
        4
 70
     1
 43
3.0
 10
-3005.225272394001
 20
1745.714459658588
 42
0.4142135623731
 10
-3006.725272394001
 20
1747.214459658588
 42
0.4142135623731
 10
-3008.225272394001
 20
1745.714459658588
 42
0.4142135623731
 10
-3006.725272394001
 20
1744.214459658588
 42
0.4142135623731
  0
LINE
  5
20E
330
1F
100
AcDbEntity
  8
0-B
  6
Continuous
 62
   120
370
     5
100
AcDbLine
 10
-3294.725272394001
 20
1745.714459658588
 30
0.0
 11
-3006.725272394001
 21
1745.714459658588
 31
0.0
  0
LINE
  5
20F
330
1F
100
AcDbEntity
  8
0-B
  6
Continuous
 62
   120
370
     5
100
AcDbLine
 10
-3294.725272394001
 20
1745.714459658588
 30
0.0
 11
-3294.725272394001
 21
1845.714459658588
 31
0.0
  0
LWPOLYLINE
  5
210
330
1F
100
AcDbEntity
  8
0-B
  6
Continuous
 62
     7
370
     9
100
AcDbPolyline
 90
        4
 70
     1
 43
3.0
 10
-3293.225272394001
 20
1745.714459658588
 42
0.4142135623731
 10
-3294.725272394001
 20
1747.214459658588
 42
0.4142135623731
 10
-3296.225272394001
 20
1745.714459658588
 42
0.4142135623731
 10
-3294.725272394001
 20
1744.214459658588
 42
0.4142135623731
  0
LINE
  5
211
330
1F
100
AcDbEntity
  8
0-B
  6
Continuous
 62
   120
370
     5
100
AcDbLine
 10
-3386.725272394001
 20
1745.714459658588
 30
0.0
 11
-3294.725272394001
 21
1745.714459658588
 31
0.0
  0
LINE
  5
212
330
1F
100
AcDbEntity
  8
0-B
  6
Continuous
 62
   120
370
     5
100
AcDbLine
 10
-3386.725272394001
 20
1745.714459658588
 30
0.0
 11
-3386.725272394001
 21
1845.714459658588
 31
0.0
  0
LWPOLYLINE
  5
213
330
1F
100
AcDbEntity
  8
0-B
  6
Continuous
 62
     7
370
     9
100
AcDbPolyline
 90
        4
 70
     1
 43
3.0
 10
-3385.225272394001
 20
1745.714459658588
 42
0.4142135623731
 10
-3386.725272394001
 20
1747.214459658588
 42
0.4142135623731
 10
-3388.225272394001
 20
1745.714459658588
 42
0.4142135623731
 10
-3386.725272394001
 20
1744.214459658588
 42
0.4142135623731
  0
LINE
  5
214
330
1F
100
AcDbEntity
  8
0-B
  6
Continuous
 62
   120
370
     5
100
AcDbLine
 10
-3674.725272394
 20
1745.714459658588
 30
0.0
 11
-3386.725272394001
 21
1745.714459658588
 31
0.0
  0
LINE
  5
215
330
1F
100
AcDbEntity
  8
0-B
  6
Continuous
 62
   120
370
     5
100
AcDbLine
 10
-3674.725272394
 20
1745.714459658588
 30
0.0
 11
-3674.725272394
 21
1845.714459658588
 31
0.0
  0
LWPOLYLINE
  5
216
330
1F
100
AcDbEntity
  8
0-B
  6
Continuous
 62
     7
370
     9
100
AcDbPolyline
 90
        4
 70
     1
 43
3.0
 10
-3673.225272394
 20
1745.714459658588
 42
0.4142135623731
 10
-3674.725272394
 20
1747.214459658588
 42
0.4142135623731
 10
-3676.225272394
 20
1745.714459658588
 42
0.4142135623731
 10
-3674.725272394
 20
1744.214459658588
 42
0.4142135623731
  0
LWPOLYLINE
  5
217
330
1F
100
AcDbEntity
  8
0-B
  6
Continuous
 62
     7
370
     9
100
AcDbPolyline
 90
        4
 70
     1
 43
3.0
 10
-4244.225272394
 20
1745.714459658588
 42
0.4142135623731
 10
-4245.725272394
 20
1747.214459658588
 42
0.4142135623731
 10
-4247.225272394001
 20
1745.714459658588
 42
0.4142135623731
 10
-4245.725272394
 20
1744.214459658588
 42
0.4142135623731
  0
LINE
  5
218
330
1F
100
AcDbEntity
  8
0-B
  6
Continuous
 62
   120
370
     5
100
AcDbLine
 10
-4245.725272394
 20
1745.714459658588
 30
0.0
 11
-3674.725272394
 21
1745.714459658588
 31
0.0
  0
LINE
  5
219
330
1F
100
AcDbEntity
  8
0-B
  6
Continuous
 62
   120
370
     5
100
AcDbLine
 10
-4395.725272394
 20
2195.714459658588
 30
0.0
 11
-4295.725272393999
 21
2195.714459658588
 31
0.0
  0
LINE
  5
21A
330
1F
100
AcDbEntity
  8
0-B
  6
Continuous
 62
   120
370
     5
100
AcDbLine
 10
-4395.725272394
 20
1895.714459658588
 30
0.0
 11
-4295.725272393999
 21
1895.714459658588
 31
0.0
  0
LWPOLYLINE
  5
21B
330
1F
100
AcDbEntity
  8
0-B
  6
Continuous
 62
     7
370
     9
100
AcDbPolyline
 90
        4
 70
     1
 43
3.0
 10
-4394.225272394
 20
2195.714459658588
 42
0.4142135623731
 10
-4395.725272394
 20
2197.214459658588
 42
0.4142135623731
 10
-4397.225272394001
 20
2195.714459658588
 42
0.4142135623731
 10
-4395.725272394
 20
2194.214459658589
 42
0.4142135623731
  0
LWPOLYLINE
  5
21C
330
1F
100
AcDbEntity
  8
0-B
  6
Continuous
 62
     7
370
     9
100
AcDbPolyline
 90
        4
 70
     1
 43
3.0
 10
-4394.225272394
 20
1895.714459658588
 42
0.4142135623731
 10
-4395.725272394
 20
1897.214459658588
 42
0.4142135623731
 10
-4397.225272394001
 20
1895.714459658588
 42
0.4142135623731
 10
-4395.725272394
 20
1894.214459658588
 42
0.4142135623731
  0
LINE
  5
21D
330
1F
100
AcDbEntity
  8
0-B
  6
Continuous
 62
   120
370
     5
100
AcDbLine
 10
-4395.725272394
 20
1895.714459658588
 30
0.0
 11
-4395.725272394
 21
2195.714459658588
 31
0.0
  0
LINE
  5
21E
330
1F
100
AcDbEntity
  8
0-4
  6
Continuous
 62
    92
370
    13
100
AcDbLine
 10
-3006.725272394001
 20
2055.714459658588
 30
0.0
 11
-3006.725272394001
 21
1895.714459658588
 31
0.0
  0
LINE
  5
21F
330
1F
100
AcDbEntity
  8
0-4
  6
Continuous
 62
    92
370
    13
100
AcDbLine
 10
-3006.725272394001
 20
1895.714459658588
 30
0.0
 11
-2775.725272394001
 21
1895.714459658588
 31
0.0
  0
LINE
  5
220
330
1F
100
AcDbEntity
  8
0-4
  6
Continuous
 62
    92
370
    13
100
AcDbLine
 10
-3674.725272394
 20
2055.714459658588
 30
0.0
 11
-3674.725272394
 21
1895.714459658588
 31
0.0
  0
LINE
  5
221
330
1F
100
AcDbEntity
  8
0-4
  6
Continuous
 62
    92
370
    13
100
AcDbLine
 10
-4245.725272394
 20
1895.714459658588
 30
0.0
 11
-3674.725272394
 21
1895.714459658588
 31
0.0
  0
LINE
  5
222
330
1F
100
AcDbEntity
  8
0-B
  6
Continuous
 62
   120
370
     5
100
AcDbLine
 10
-3150.725272394001
 20
2055.714459658588
 30
0.0
 11
-3096.725272394001
 21
2055.714459658588
 31
0.0
  0
LINE
  5
223
330
1F
100
AcDbEntity
  8
0-B
  6
Continuous
 62
   120
370
     5
100
AcDbLine
 10
-3150.725272394001
 20
1895.714459658588
 30
0.0
 11
-3096.725272394001
 21
1895.714459658588
 31
0.0
  0
LWPOLYLINE
  5
224
330
1F
100
AcDbEntity
  8
0-B
  6
Continuous
 62
     7
370
     9
100
AcDbPolyline
 90
        4
 70
     1
 43
3.0
 10
-3149.225272394001
 20
2055.714459658588
 42
0.4142135623731
 10
-3150.725272394001
 20
2057.214459658588
 42
0.4142135623731
 10
-3152.225272394001
 20
2055.714459658588
 42
0.4142135623731
 10
-3150.725272394001
 20
2054.214459658588
 42
0.4142135623731
  0
LWPOLYLINE
  5
225
330
1F
100
AcDbEntity
  8
0-B
  6
Continuous
 62
     7
370
     9
100
AcDbPolyline
 90
        4
 70
     1
 43
3.0
 10
-3149.225272394001
 20
1895.714459658588
 42
0.4142135623731
 10
-3150.725272394001
 20
1897.214459658588
 42
0.4142135623731
 10
-3152.225272394001
 20
1895.714459658588
 42
0.4142135623731
 10
-3150.725272394001
 20
1894.214459658588
 42
0.4142135623731
  0
LINE
  5
226
330
1F
100
AcDbEntity
  8
0-B
  6
Continuous
 62
   120
370
     5
100
AcDbLine
 10
-3150.725272394001
 20
1895.714459658588
 30
0.0
 11
-3150.725272394001
 21
2055.714459658588
 31
0.0
  0
LINE
  5
227
330
1F
100
AcDbEntity
  8
0-4
  6
Continuous
 62
    92
370
    13
100
AcDbLine
 10
-3386.725272394001
 20
2055.714459658588
 30
0.0
 11
-3386.725272394001
 21
1895.714459658588
 31
0.0
  0
LINE
  5
228
330
1F
100
AcDbEntity
  8
0-4
  6
Continuous
 62
    92
370
    13
100
AcDbLine
 10
-3386.725272394001
 20
1895.714459658588
 30
0.0
 11
-3294.725272394001
 21
1895.714459658588
 31
0.0
  0
LINE
  5
229
330
1F
100
AcDbEntity
  8
0-4
  6
Continuous
 62
    92
370
    13
100
AcDbLine
 10
-2981.725272394001
 20
1900.714459658589
 30
0.0
 11
-2981.725272394001
 21
1895.714459658588
 31
0.0
  0
LINE
  5
22A
330
1F
100
AcDbEntity
  8
0-4
  6
Continuous
 62
    92
370
    13
100
AcDbLine
 10
-3001.725272394001
 20
1900.714459658589
 30
0.0
 11
-2981.725272394001
 21
1900.714459658589
 31
0.0
  0
LINE
  5
22B
330
1F
100
AcDbEntity
  8
0-4
  6
Continuous
 62
    92
370
    13
100
AcDbLine
 10
-3679.725272394
 20
2060.714459658588
 30
0.0
 11
-3679.725272394
 21
1900.714459658589
 31
0.0
  0
LINE
  5
22C
330
1F
100
AcDbEntity
  8
0-4
  6
Continuous
 62
    92
370
    13
100
AcDbLine
 10
-3699.725272394001
 20
1900.714459658589
 30
0.0
 11
-3679.725272394
 21
1900.714459658589
 31
0.0
  0
LINE
  5
22D
330
1F
100
AcDbEntity
  8
0-4
  6
Continuous
 62
    92
370
    13
100
AcDbLine
 10
-3699.725272394001
 20
1900.714459658589
 30
0.0
 11
-3699.725272394001
 21
1895.714459658588
 31
0.0
  0
LINE
  5
22E
330
1F
100
AcDbEntity
  8
0-4
  6
Continuous
 62
    92
370
    13
100
AcDbLine
 10
-3679.725272394
 20
2060.714459658588
 30
0.0
 11
-3381.725272394001
 21
2060.714459658588
 31
0.0
  0
LINE
  5
22F
330
1F
100
AcDbEntity
  8
0-4
  6
Continuous
 62
    92
370
    13
100
AcDbLine
 10
-3381.725272394001
 20
2060.714459658588
 30
0.0
 11
-3381.725272394001
 21
1900.714459658589
 31
0.0
  0
LINE
  5
230
330
1F
100
AcDbEntity
  8
0-4
  6
Continuous
 62
    92
370
    13
100
AcDbLine
 10
-3381.725272394001
 20
1900.714459658589
 30
0.0
 11
-3299.725272394
 21
1900.714459658589
 31
0.0
  0
LINE
  5
231
330
1F
100
AcDbEntity
  8
0-4
  6
Continuous
 62
    92
370
    13
100
AcDbLine
 10
-3299.725272394
 20
2060.714459658588
 30
0.0
 11
-3299.725272394
 21
1900.714459658589
 31
0.0
  0
LINE
  5
232
330
1F
100
AcDbEntity
  8
0-4
  6
Continuous
 62
    92
370
    13
100
AcDbLine
 10
-3299.725272394
 20
2060.714459658588
 30
0.0
 11
-3001.725272394001
 21
2060.714459658588
 31
0.0
  0
LINE
  5
233
330
1F
100
AcDbEntity
  8
0-4
  6
Continuous
 62
    92
370
    13
100
AcDbLine
 10
-3001.725272394001
 20
2060.714459658588
 30
0.0
 11
-3001.725272394001
 21
1900.714459658589
 31
0.0
  0
LINE
  5
234
330
1F
100
AcDbEntity
  8
0-4
  6
Continuous
 62
    92
370
    13
100
AcDbLine
 10
-3294.725272394001
 20
2055.714459658588
 30
0.0
 11
-3294.725272394001
 21
1895.714459658588
 31
0.0
  0
LINE
  5
235
330
1F
100
AcDbEntity
  8
0-4
  6
Continuous
 62
    92
370
    13
100
AcDbLine
 10
-3294.725272394001
 20
2055.714459658588
 30
0.0
 11
-3006.725272394001
 21
2055.714459658588
 31
0.0
  0
LINE
  5
236
330
1F
100
AcDbEntity
  8
0-4
  6
Continuous
 62
    92
370
    13
100
AcDbLine
 10
-3674.725272394
 20
2055.714459658588
 30
0.0
 11
-3386.725272394001
 21
2055.714459658588
 31
0.0
  0
LINE
  5
237
330
1F
100
AcDbEntity
  8
0-4
  6
Continuous
 62
    92
370
    13
100
AcDbLine
 10
-4245.725272394
 20
2195.714459658588
 30
0.0
 11
-4245.725272394
 21
1895.714459658588
 31
0.0
  0
LINE
  5
238
330
1F
100
AcDbEntity
  8
0-4
  6
Continuous
 62
    92
370
    13
100
AcDbLine
 10
-2775.725272394001
 20
2195.714459658588
 30
0.0
 11
-4245.725272394
 21
2195.714459658588
 31
0.0
  0
LINE
  5
239
330
1F
100
AcDbEntity
  8
0-4
  6
Continuous
 62
    92
370
    13
100
AcDbLine
 10
-2775.725272394001
 20
1895.714459658588
 30
0.0
 11
-2775.725272394001
 21
2195.714459658588
 31
0.0
  0
LINE
  5
23A
330
1F
100
AcDbEntity
  8
0-0
  6
JWW_HOJO
 62
   120
370
     5
100
AcDbLine
 10
-2725.725272394002
 20
1845.714459658588
 30
0.0
 11
-2725.725272394002
 21
2245.714459658589
 31
0.0
  0
MTEXT
  5
23B
330
1F
100
AcDbEntity
  8
0-B
  6
Continuous
 62
     7
370
   211
100
AcDbMText
 10
-4395.725272394
 20
1989.111959658588
 30
0.0
 40
74.295
 41
97.5
 46
0.0
 71
     7
 72
     1
  1
{\fＭＳ ゴシック|b0|i0|c128|p49;30}
 11
6.123031769111886E-17
 21
1.0
 31
0.0
 73
     1
 44
1.0
  0
MTEXT
  5
23C
330
1F
100
AcDbEntity
  8
0-B
  6
Continuous
 62
     7
370
   211
100
AcDbMText
 10
-3150.725272394001
 20
1919.111959658588
 30
0.0
 40
74.295
 41
97.5
 46
0.0
 71
     7
 72
     1
  1
{\fＭＳ ゴシック|b0|i0|c128|p49;16}
 11
6.123031769111886E-17
 21
1.0
 31
0.0
 73
     1
 44
1.0
  0
MTEXT
  5
23D
330
1F
100
AcDbEntity
  8
0-B
  6
Continuous
 62
     7
370
   211
100
AcDbMText
 10
-4061.475272394001
 20
1739.290709658588
 30
0.0
 40
77.15249999999999
 41
202.5
 46
0.0
 71
     7
 72
     1
  1
{\fＭＳ ゴシック|b0|i0|c128|p49;57.1}
 73
     1
 44
1.0
  0
MTEXT
  5
23E
330
1F
100
AcDbEntity
  8
0-B
  6
Continuous
 62
     7
370
   211
100
AcDbMText
 10
-2992.475272394001
 20
1739.290709658588
 30
0.0
 40
77.15249999999999
 41
202.5
 46
0.0
 71
     7
 72
     1
  1
{\fＭＳ ゴシック|b0|i0|c128|p49;23.1}
 73
     1
 44
1.0
  0
LINE
  5
23F
330
1F
100
AcDbEntity
  8
0-B
  6
Continuous
 62
   120
370
     5
100
AcDbLine
 10
-4245.725272394
 20
2345.714459658589
 30
0.0
 11
-2775.725272394001
 21
2345.714459658589
 31
0.0
  0
LWPOLYLINE
  5
240
330
1F
100
AcDbEntity
  8
0-B
  6
Continuous
 62
     7
370
     9
100
AcDbPolyline
 90
        4
 70
     1
 43
3.0
 10
-4244.225272394
 20
2345.714459658589
 42
0.4142135623731
 10
-4245.725272394
 20
2347.214459658589
 42
0.4142135623731
 10
-4247.225272394001
 20
2345.714459658589
 42
0.4142135623731
 10
-4245.725272394
 20
2344.214459658589
 42
0.4142135623731
  0
LWPOLYLINE
  5
241
330
1F
100
AcDbEntity
  8
0-B
  6
Continuous
 62
     7
370
     9
100
AcDbPolyline
 90
        4
 70
     1
 43
3.0
 10
-2774.225272394001
 20
2345.714459658589
 42
0.4142135623731
 10
-2775.725272394001
 20
2347.214459658589
 42
0.4142135623731
 10
-2777.225272394001
 20
2345.714459658589
 42
0.4142135623731
 10
-2775.725272394001
 20
2344.214459658589
 42
0.4142135623731
  0
LINE
  5
242
330
1F
100
AcDbEntity
  8
0-B
  6
Continuous
 62
   120
370
     5
100
AcDbLine
 10
-4245.725272394
 20
2345.714459658589
 30
0.0
 11
-4245.725272394
 21
2245.714459658589
 31
0.0
  0
LINE
  5
243
330
1F
100
AcDbEntity
  8
0-B
  6
Continuous
 62
   120
370
     5
100
AcDbLine
 10
-2775.725272394001
 20
2345.714459658589
 30
0.0
 11
-2775.725272394001
 21
2245.714459658589
 31
0.0
  0
MTEXT
  5
244
330
1F
100
AcDbEntity
  8
0-B
  6
Continuous
 62
     7
370
   211
100
AcDbMText
 10
-3585.725272394001
 20
2353.814459658588
 30
0.0
 40
76.19999999999999
 41
150.0
 46
0.0
 71
     7
 72
     1
  1
{\fＭＳ ゴシック|b0|i0|c128|p49;147}
 73
     1
 44
1.0
  0
MTEXT
  5
245
330
1F
100
AcDbEntity
  8
0-B
  6
Continuous
 62
     7
370
   211
100
AcDbMText
 10
-3415.725272394001
 20
1638.814459658589
 30
0.0
 40
76.19999999999999
 41
150.0
 46
0.0
 71
     7
 72
     1
  1
{\fＭＳ ゴシック|b0|i0|c128|p49;9.2}
 73
     1
 44
1.0
  0
MTEXT
  5
246
330
1F
100
AcDbEntity
  8
0-B
  6
Continuous
 62
     7
370
   211
100
AcDbMText
 10
-3631.975272394
 20
1739.290709658588
 30
0.0
 40
77.15249999999999
 41
202.5
 46
0.0
 71
     7
 72
     1
  1
{\fＭＳ ゴシック|b0|i0|c128|p49;28.8}
 73
     1
 44
1.0
  0
MTEXT
  5
247
330
1F
100
AcDbEntity
  8
0-B
  6
Continuous
 62
     7
370
   211
100
AcDbMText
 10
-3251.975272394002
 20
1739.290709658588
 30
0.0
 40
77.15249999999999
 41
202.5
 46
0.0
 71
     7
 72
     1
  1
{\fＭＳ ゴシック|b0|i0|c128|p49;28.8}
 73
     1
 44
1.0
  0
LINE
  5
248
330
1F
100
AcDbEntity
  8
0-B
  6
Continuous
 62
   120
370
     5
100
AcDbLine
 10
-4245.725272394
 20
1745.714459658588
 30
0.0
 11
-4245.725272394
 21
1845.714459658588
 31
0.0
  0
LINE
  5
249
330
1F
100
AcDbEntity
  8
0-B
  6
Continuous
 62
   120
370
     5
100
AcDbLine
 10
-2775.725272394001
 20
1745.714459658588
 30
0.0
 11
-2775.725272394001
 21
1845.714459658588
 31
0.0
  0
LINE
  5
24A
330
1F
100
AcDbEntity
  8
0-0
  6
JWW_HOJO
 62
   120
370
     5
100
AcDbLine
 10
-4295.725272393999
 20
1845.714459658588
 30
0.0
 11
-2725.725272394002
 21
1845.714459658588
 31
0.0
  0
LINE
  5
24B
330
1F
100
AcDbEntity
  8
0-0
  6
JWW_HOJO
 62
   120
370
     5
100
AcDbLine
 10
-4395.725272394
 20
1745.714459658588
 30
0.0
 11
-2625.725272394001
 21
1745.714459658588
 31
0.0
  0
LINE
  5
24C
330
1F
100
AcDbEntity
  8
0-0
  6
JWW_HOJO
 62
   120
370
     5
100
AcDbLine
 10
-2625.725272394001
 20
1745.714459658588
 30
0.0
 11
-2625.725272394001
 21
2345.714459658589
 31
0.0
  0
LINE
  5
24D
330
1F
100
AcDbEntity
  8
0-0
  6
JWW_HOJO
 62
   120
370
     5
100
AcDbLine
 10
-2725.725272394002
 20
2245.714459658589
 30
0.0
 11
-4295.725272393999
 21
2245.714459658589
 31
0.0
  0
LINE
  5
24E
330
1F
100
AcDbEntity
  8
0-0
  6
JWW_HOJO
 62
   120
370
     5
100
AcDbLine
 10
-4295.725272393999
 20
2245.714459658589
 30
0.0
 11
-4295.725272393999
 21
1845.714459658588
 31
0.0
  0
LINE
  5
24F
330
1F
100
AcDbEntity
  8
0-0
  6
JWW_HOJO
 62
   120
370
     5
100
AcDbLine
 10
-2625.725272394001
 20
2345.714459658589
 30
0.0
 11
-4395.725272394
 21
2345.714459658589
 31
0.0
  0
LINE
  5
250
330
1F
100
AcDbEntity
  8
0-0
  6
JWW_HOJO
 62
   120
370
     5
100
AcDbLine
 10
-4395.725272394
 20
2345.714459658589
 30
0.0
 11
-4395.725272394
 21
1745.714459658588
 31
0.0
  0
LINE
  5
251
330
1F
100
AcDbEntity
  8
F-1
  6
Continuous
 62
     7
370
     9
100
AcDbLine
 10
904.9995216163379
 20
4164.999983504013
 30
0.0
 11
904.9995216163379
 21
-3795.000211870348
 31
0.0
  0
LINE
  5
252
330
1F
100
AcDbEntity
  8
F-1
  6
Continuous
 62
     7
370
     9
100
AcDbLine
 10
-145.0009732633075
 20
-2718.571539992992
 30
0.0
 11
5689.999719568197
 21
-2718.571539992992
 31
0.0
  0
LINE
  5
253
330
1F
100
AcDbEntity
  8
F-1
  6
Continuous
 62
     7
370
     9
100
AcDbLine
 10
-145.0009732633075
 20
-1647.142900076613
 30
0.0
 11
5689.999719568197
 21
-1647.142900076613
 31
0.0
  0
LINE
  5
254
330
1F
100
AcDbEntity
  8
F-1
  6
Continuous
 62
     7
370
     9
100
AcDbLine
 10
-145.0009732633075
 20
-575.7142601602334
 30
0.0
 11
5689.999719568197
 21
-575.7142601602334
 31
0.0
  0
LINE
  5
255
330
1F
100
AcDbEntity
  8
F-1
  6
JWW_DASHED1
 62
     7
370
     9
100
AcDbLine
 10
3439.999719568196
 20
-754.285700146296
 30
0.0
 11
5689.999719568197
 21
-754.285700146296
 31
0.0
  0
MTEXT
  5
256
330
1F
100
AcDbEntity
  8
F-A
  6
Continuous
 62
     7
370
     0
100
AcDbMText
 10
4778.749126529666
 20
-3938.071010139966
 30
0.0
 40
78.86699999999999
 41
517.5
 46
0.0
 71
     7
 72
     1
  1
{\fＭＳ ゴシック|b0|i0|c128|p49;2021.04.01}
 73
     1
 44
1.0
  0
MTEXT
  5
257
330
1F
100
AcDbEntity
  8
0-A
  6
Continuous
 62
     7
370
     9
100
AcDbMText
 10
-1444.999830916126
 20
3553.844026901606
 30
0.0
 40
68.58
 41
585.0
 46
0.0
 71
     7
 72
     1
  1
{\fＭＳ ゴシック|b0|i0|c128|p49;ＤＭＢＷ92-□}
 73
     1
 44
1.0
  0
MTEXT
  5
258
330
1F
100
AcDbEntity
  8
0-A
  6
Continuous
 62
     7
370
     9
100
AcDbMText
 10
-1444.999830916126
 20
2482.415386985227
 30
0.0
 40
68.58
 41
585.0
 46
0.0
 71
     7
 72
     1
  1
{\fＭＳ ゴシック|b0|i0|c128|p49;ＥＭＢＷ79-□}
 73
     1
 44
1.0
  0
MTEXT
  5
259
330
1F
100
AcDbEntity
  8
0-A
  6
Continuous
 62
     7
370
     9
100
AcDbMText
 10
-1444.999830916126
 20
1406.700497068849
 30
0.0
 40
60.00750000000001
 41
630.0
 46
0.0
 71
     7
 72
     1
  1
{\fＭＳ ゴシック|b0|i0|c128|p49;ＤＣＱＷ7ＳＢ-□}
 73
     1
 44
1.0
  0
ARC
  5
25A
330
1F
100
AcDbEntity
  8
0-4
  6
Continuous
 62
    92
370
    13
100
AcDbCircle
 10
1572.498822858946
 20
1126.428862096716
 30
0.0
 40
30.0
100
AcDbArc
 50
90.0
 51
180.0
  0
ARC
  5
25B
330
1F
100
AcDbEntity
  8
0-4
  6
Continuous
 62
    92
370
    13
100
AcDbCircle
 10
1572.498822858946
 20
1126.428862096716
 30
0.0
 40
25.0
100
AcDbArc
 50
90.0
 51
180.0
  0
LINE
  5
25C
330
1F
100
AcDbEntity
  8
0-0
  6
JWW_HOJO
 62
   120
370
     5
100
AcDbLine
 10
1542.498822858944
 20
1206.42886209672
 30
0.0
 11
1542.498822858944
 21
956.4288620967202
 31
0.0
  0
LINE
  5
25D
330
1F
100
AcDbEntity
  8
0-B
  6
Continuous
 62
   120
370
     5
100
AcDbLine
 10
1392.498822858944
 20
1006.42886209672
 30
0.0
 11
1392.498822858944
 21
1126.428013326579
 31
0.0
  0
LWPOLYLINE
  5
25E
330
1F
100
AcDbEntity
  8
0-B
  6
Continuous
 62
     7
370
     9
100
AcDbPolyline
 90
        4
 70
     1
 43
3.0
 10
1393.998822858944
 20
1006.42886209672
 42
0.4142135623731
 10
1392.498822858944
 20
1007.92886209672
 42
0.4142135623731
 10
1390.998822858944
 20
1006.42886209672
 42
0.4142135623731
 10
1392.498822858944
 20
1004.92886209672
 42
0.4142135623731
  0
LWPOLYLINE
  5
25F
330
1F
100
AcDbEntity
  8
0-B
  6
Continuous
 62
     7
370
     9
100
AcDbPolyline
 90
        4
 70
     1
 43
3.0
 10
1393.998822858944
 20
1126.428013326579
 42
0.4142135623731
 10
1392.498822858944
 20
1127.928013326578
 42
0.4142135623731
 10
1390.998822858944
 20
1126.428013326579
 42
0.4142135623731
 10
1392.498822858944
 20
1124.928013326579
 42
0.4142135623731
  0
LINE
  5
260
330
1F
100
AcDbEntity
  8
0-B
  6
Continuous
 62
   120
370
     5
100
AcDbLine
 10
1292.498822858945
 20
1006.42886209672
 30
0.0
 11
1492.498822858944
 21
1006.42886209672
 31
0.0
  0
LINE
  5
261
330
1F
100
AcDbEntity
  8
0-B
  6
Continuous
 62
   120
370
     5
100
AcDbLine
 10
1392.498822858944
 20
1126.428013326579
 30
0.0
 11
1492.498822858944
 21
1126.428013326579
 31
0.0
  0
LINE
  5
262
330
1F
100
AcDbEntity
  8
0-B
  6
Continuous
 62
   120
370
     5
100
AcDbLine
 10
1392.498822858944
 20
1126.428013326579
 30
0.0
 11
1392.498822858944
 21
1156.42886209672
 31
0.0
  0
LWPOLYLINE
  5
263
330
1F
100
AcDbEntity
  8
0-B
  6
Continuous
 62
     7
370
     9
100
AcDbPolyline
 90
        4
 70
     1
 43
3.0
 10
1393.998822858944
 20
1156.42886209672
 42
0.4142135623731
 10
1392.498822858944
 20
1157.92886209672
 42
0.4142135623731
 10
1390.998822858944
 20
1156.42886209672
 42
0.4142135623731
 10
1392.498822858944
 20
1154.92886209672
 42
0.4142135623731
  0
LINE
  5
264
330
1F
100
AcDbEntity
  8
0-B
  6
Continuous
 62
   120
370
     5
100
AcDbLine
 10
1292.498822858945
 20
1156.42886209672
 30
0.0
 11
1492.498822858944
 21
1156.42886209672
 31
0.0
  0
LINE
  5
265
330
1F
100
AcDbEntity
  8
0-B
  6
Continuous
 62
   120
370
     5
100
AcDbLine
 10
1292.498822858945
 20
1006.42886209672
 30
0.0
 11
1292.498822858945
 21
1156.42886209672
 31
0.0
  0
LWPOLYLINE
  5
266
330
1F
100
AcDbEntity
  8
0-B
  6
Continuous
 62
     7
370
     9
100
AcDbPolyline
 90
        4
 70
     1
 43
3.0
 10
1293.998822858945
 20
1006.42886209672
 42
0.4142135623731
 10
1292.498822858945
 20
1007.92886209672
 42
0.4142135623731
 10
1290.998822858945
 20
1006.42886209672
 42
0.4142135623731
 10
1292.498822858945
 20
1004.92886209672
 42
0.4142135623731
  0
LWPOLYLINE
  5
267
330
1F
100
AcDbEntity
  8
0-B
  6
Continuous
 62
     7
370
     9
100
AcDbPolyline
 90
        4
 70
     1
 43
3.0
 10
1293.998822858945
 20
1156.42886209672
 42
0.4142135623731
 10
1292.498822858945
 20
1157.92886209672
 42
0.4142135623731
 10
1290.998822858945
 20
1156.42886209672
 42
0.4142135623731
 10
1292.498822858945
 20
1154.92886209672
 42
0.4142135623731
  0
LWPOLYLINE
  5
268
330
1F
100
AcDbEntity
  8
0-B
  6
Continuous
 62
     7
370
     9
100
AcDbPolyline
 90
        4
 70
     1
 43
3.0
 10
1543.998822858944
 20
856.4288620967199
 42
0.4142135623731
 10
1542.498822858944
 20
857.9288620967199
 42
0.4142135623731
 10
1540.998822858944
 20
856.4288620967199
 42
0.4142135623731
 10
1542.498822858944
 20
854.9288620967199
 42
0.4142135623731
  0
LINE
  5
269
330
1F
100
AcDbEntity
  8
0-B
  6
Continuous
 62
   120
370
     5
100
AcDbLine
 10
1542.498822858944
 20
756.4288620967204
 30
0.0
 11
1542.498822858944
 21
956.4288620967202
 31
0.0
  0
LWPOLYLINE
  5
26A
330
1F
100
AcDbEntity
  8
0-B
  6
Continuous
 62
     7
370
     9
100
AcDbPolyline
 90
        4
 70
     1
 43
3.0
 10
1543.998822858944
 20
756.4288620967204
 42
0.4142135623731
 10
1542.498822858944
 20
757.9288620967204
 42
0.4142135623731
 10
1540.998822858944
 20
756.4288620967204
 42
0.4142135623731
 10
1542.498822858944
 20
754.9288620967204
 42
0.4142135623731
  0
LINE
  5
26B
330
1F
100
AcDbEntity
  8
0-0
  6
JWW_HOJO
 62
   120
370
     5
100
AcDbLine
 10
1492.498822858944
 20
1306.42886209672
 30
0.0
 11
1492.498822858944
 21
856.4288620967199
 31
0.0
  0
LINE
  5
26C
330
1F
100
AcDbEntity
  8
0-0
  6
JWW_HOJO
 62
   120
370
     5
100
AcDbLine
 10
1292.498822858945
 20
1306.42886209672
 30
0.0
 11
1292.498822858945
 21
756.4288620967204
 31
0.0
  0
LINE
  5
26D
330
1F
100
AcDbEntity
  8
0-0
  6
JWW_HOJO
 62
   120
370
     5
100
AcDbLine
 10
1392.498822858944
 20
1306.42886209672
 30
0.0
 11
1392.498822858944
 21
756.4288620967204
 31
0.0
  0
ARC
  5
26E
330
1F
100
AcDbEntity
  8
0-4
  6
Continuous
 62
    92
370
    13
100
AcDbCircle
 10
2982.499490426255
 20
1126.428862096716
 30
0.0
 40
30.0
100
AcDbArc
 50
0.0
 51
90.0
  0
ARC
  5
26F
330
1F
100
AcDbEntity
  8
0-4
  6
Continuous
 62
    92
370
    13
100
AcDbCircle
 10
2982.499490426255
 20
1126.428862096716
 30
0.0
 40
25.0
100
AcDbArc
 50
0.0
 51
90.0
  0
LINE
  5
270
330
1F
100
AcDbEntity
  8
0-0
  6
JWW_HOJO
 62
   120
370
     5
100
AcDbLine
 10
3012.499490426255
 20
956.4288620967202
 30
0.0
 11
3012.499490426255
 21
1206.42886209672
 31
0.0
  0
LINE
  5
271
330
1F
100
AcDbEntity
  8
0-0
  6
JWW_HOJO
 62
   120
370
     5
100
AcDbLine
 10
1542.498822858944
 20
1206.42886209672
 30
0.0
 11
3012.499490426255
 21
1206.42886209672
 31
0.0
  0
LINE
  5
272
330
1F
100
AcDbEntity
  8
0-0
  6
JWW_HOJO
 62
   120
370
     5
100
AcDbLine
 10
3012.499490426255
 20
956.4288620967202
 30
0.0
 11
1542.498822858944
 21
956.4288620967202
 31
0.0
  0
LINE
  5
273
330
1F
100
AcDbEntity
  8
0-0
  6
JWW_HOJO
 62
   120
370
     5
100
AcDbLine
 10
3062.499490426254
 20
856.4288620967199
 30
0.0
 11
1492.498822858944
 21
856.4288620967199
 31
0.0
  0
LWPOLYLINE
  5
274
330
1F
100
AcDbEntity
  8
0-B
  6
Continuous
 62
     7
370
     9
100
AcDbPolyline
 90
        4
 70
     1
 43
3.0
 10
3013.999490426255
 20
856.4288620967199
 42
0.4142135623731
 10
3012.499490426255
 20
857.9288620967199
 42
0.4142135623731
 10
3010.999490426255
 20
856.4288620967199
 42
0.4142135623731
 10
3012.499490426255
 20
854.9288620967199
 42
0.4142135623731
  0
LINE
  5
275
330
1F
100
AcDbEntity
  8
0-B
  6
Continuous
 62
   120
370
     5
100
AcDbLine
 10
3012.499490426255
 20
756.4288620967204
 30
0.0
 11
3012.499490426255
 21
956.4288620967202
 31
0.0
  0
LINE
  5
276
330
1F
100
AcDbEntity
  8
0-B
  6
Continuous
 62
   120
370
     5
100
AcDbLine
 10
1542.498822858944
 20
756.4288620967204
 30
0.0
 11
3012.499490426255
 21
756.4288620967204
 31
0.0
  0
LWPOLYLINE
  5
277
330
1F
100
AcDbEntity
  8
0-B
  6
Continuous
 62
     7
370
     9
100
AcDbPolyline
 90
        4
 70
     1
 43
3.0
 10
3013.999490426255
 20
756.4288620967204
 42
0.4142135623731
 10
3012.499490426255
 20
757.9288620967204
 42
0.4142135623731
 10
3010.999490426255
 20
756.4288620967204
 42
0.4142135623731
 10
3012.499490426255
 20
754.9288620967204
 42
0.4142135623731
  0
LINE
  5
278
330
1F
100
AcDbEntity
  8
0-0
  6
JWW_HOJO
 62
   120
370
     5
100
AcDbLine
 10
3062.499490426254
 20
756.4288620967204
 30
0.0
 11
1292.498822858945
 21
756.4288620967204
 31
0.0
  0
LINE
  5
279
330
1F
100
AcDbEntity
  8
0-0
  6
JWW_HOJO
 62
   120
370
     5
100
AcDbLine
 10
1292.498822858945
 20
1306.42886209672
 30
0.0
 11
3062.499490426254
 21
1306.42886209672
 31
0.0
  0
LINE
  5
27A
330
1F
100
AcDbEntity
  8
0-0
  6
JWW_HOJO
 62
   120
370
     5
100
AcDbLine
 10
3062.499490426254
 20
756.4288620967204
 30
0.0
 11
3062.499490426254
 21
1306.42886209672
 31
0.0
  0
LINE
  5
27B
330
1F
100
AcDbEntity
  8
0-4
  6
Continuous
 62
    92
370
    13
100
AcDbLine
 10
1582.498822858942
 20
1006.42886209672
 30
0.0
 11
1582.498822858942
 21
1126.428013326579
 31
0.0
  0
LINE
  5
27C
330
1F
100
AcDbEntity
  8
0-4
  6
Continuous
 62
    92
370
    13
100
AcDbLine
 10
1582.498822858942
 20
1126.428862096716
 30
0.0
 11
1542.498822858944
 21
1126.428862096716
 31
0.0
  0
LINE
  5
27D
330
1F
100
AcDbEntity
  8
0-B
  6
Continuous
 62
   120
370
     5
100
AcDbLine
 10
1542.498822858944
 20
856.4288620967199
 30
0.0
 11
1582.498822858942
 21
856.4288620967199
 31
0.0
  0
LWPOLYLINE
  5
27E
330
1F
100
AcDbEntity
  8
0-B
  6
Continuous
 62
     7
370
     9
100
AcDbPolyline
 90
        4
 70
     1
 43
3.0
 10
1583.998822858942
 20
856.4288620967199
 42
0.4142135623731
 10
1582.498822858942
 20
857.9288620967199
 42
0.4142135623731
 10
1580.998822858942
 20
856.4288620967199
 42
0.4142135623731
 10
1582.498822858942
 20
854.9288620967199
 42
0.4142135623731
  0
LINE
  5
27F
330
1F
100
AcDbEntity
  8
0-B
  6
Continuous
 62
   120
370
     5
100
AcDbLine
 10
1582.498822858942
 20
856.4288620967199
 30
0.0
 11
1582.498822858942
 21
956.4288620967202
 31
0.0
  0
LINE
  5
280
330
1F
100
AcDbEntity
  8
0-4
  6
Continuous
 62
    92
370
    13
100
AcDbLine
 10
2972.499643014159
 20
1006.42886209672
 30
0.0
 11
2972.499643014159
 21
1126.428013326579
 31
0.0
  0
LINE
  5
281
330
1F
100
AcDbEntity
  8
0-4
  6
Continuous
 62
    92
370
    13
100
AcDbLine
 10
3012.499490426255
 20
1126.428862096716
 30
0.0
 11
2972.499643014159
 21
1126.428862096716
 31
0.0
  0
LWPOLYLINE
  5
282
330
1F
100
AcDbEntity
  8
0-B
  6
Continuous
 62
     7
370
     9
100
AcDbPolyline
 90
        4
 70
     1
 43
3.0
 10
2973.999490426257
 20
856.4288620967199
 42
0.4142135623731
 10
2972.499490426257
 20
857.9288620967199
 42
0.4142135623731
 10
2970.999490426258
 20
856.4288620967199
 42
0.4142135623731
 10
2972.499490426257
 20
854.9288620967199
 42
0.4142135623731
  0
LINE
  5
283
330
1F
100
AcDbEntity
  8
0-B
  6
Continuous
 62
   120
370
     5
100
AcDbLine
 10
2972.499490426257
 20
856.4288620967199
 30
0.0
 11
2972.499490426257
 21
956.4288620967202
 31
0.0
  0
LINE
  5
284
330
1F
100
AcDbEntity
  8
0-B
  6
Continuous
 62
   120
370
     5
100
AcDbLine
 10
2972.499490426257
 20
856.4288620967199
 30
0.0
 11
3012.499490426255
 21
856.4288620967199
 31
0.0
  0
LINE
  5
285
330
1F
100
AcDbEntity
  8
0-4
  6
Continuous
 62
    92
370
    13
100
AcDbLine
 10
2972.499490426257
 20
1006.42886209672
 30
0.0
 11
1582.498822858942
 21
1006.42886209672
 31
0.0
  0
LINE
  5
286
330
1F
100
AcDbEntity
  8
0-B
  6
Continuous
 62
   120
370
     5
100
AcDbLine
 10
1582.498822858942
 20
856.4288620967199
 30
0.0
 11
2972.499490426257
 21
856.4288620967199
 31
0.0
  0
LWPOLYLINE
  5
287
330
1F
100
AcDbEntity
  8
0-B
  6
Continuous
 62
     7
370
     9
100
AcDbPolyline
 90
        4
 70
     1
 43
3.0
 10
1543.998822858944
 20
1306.42886209672
 42
0.4142135623731
 10
1542.498822858944
 20
1307.92886209672
 42
0.4142135623731
 10
1540.998822858944
 20
1306.42886209672
 42
0.4142135623731
 10
1542.498822858944
 20
1304.92886209672
 42
0.4142135623731
  0
LINE
  5
288
330
1F
100
AcDbEntity
  8
0-B
  6
Continuous
 62
   120
370
     5
100
AcDbLine
 10
1542.498822858944
 20
1306.42886209672
 30
0.0
 11
1542.498822858944
 21
1206.42886209672
 31
0.0
  0
LWPOLYLINE
  5
289
330
1F
100
AcDbEntity
  8
0-B
  6
Continuous
 62
     7
370
     9
100
AcDbPolyline
 90
        4
 70
     1
 43
3.0
 10
3013.999490426255
 20
1306.42886209672
 42
0.4142135623731
 10
3012.499490426255
 20
1307.92886209672
 42
0.4142135623731
 10
3010.999490426255
 20
1306.42886209672
 42
0.4142135623731
 10
3012.499490426255
 20
1304.92886209672
 42
0.4142135623731
  0
LINE
  5
28A
330
1F
100
AcDbEntity
  8
0-B
  6
Continuous
 62
   120
370
     5
100
AcDbLine
 10
3012.499490426255
 20
1306.42886209672
 30
0.0
 11
3012.499490426255
 21
1206.42886209672
 31
0.0
  0
LINE
  5
28B
330
1F
100
AcDbEntity
  8
0-4
  6
Continuous
 62
    92
370
    13
100
AcDbLine
 10
2982.499490426255
 20
1156.42886209672
 30
0.0
 11
2861.499490426256
 21
1156.42886209672
 31
0.0
  0
LINE
  5
28C
330
1F
100
AcDbEntity
  8
0-B
  6
Continuous
 62
   120
370
     5
100
AcDbLine
 10
2242.499490430966
 20
1156.42886209672
 30
0.0
 11
2242.499490430966
 21
1096.42886209672
 31
0.0
  0
LWPOLYLINE
  5
28D
330
1F
100
AcDbEntity
  8
0-B
  6
Continuous
 62
     7
370
     9
100
AcDbPolyline
 90
        4
 70
     1
 43
3.0
 10
2243.999490430966
 20
1156.42886209672
 42
0.4142135623731
 10
2242.499490430966
 20
1157.92886209672
 42
0.4142135623731
 10
2240.999490430966
 20
1156.42886209672
 42
0.4142135623731
 10
2242.499490430966
 20
1154.92886209672
 42
0.4142135623731
  0
LWPOLYLINE
  5
28E
330
1F
100
AcDbEntity
  8
0-B
  6
Continuous
 62
     7
370
     9
100
AcDbPolyline
 90
        4
 70
     1
 43
3.0
 10
2243.999490430966
 20
1096.42886209672
 42
0.4142135623731
 10
2242.499490430966
 20
1097.92886209672
 42
0.4142135623731
 10
2240.999490430966
 20
1096.42886209672
 42
0.4142135623731
 10
2242.499490430966
 20
1094.92886209672
 42
0.4142135623731
  0
LINE
  5
28F
330
1F
100
AcDbEntity
  8
0-B
  6
Continuous
 62
   120
370
     5
100
AcDbLine
 10
2242.499490430966
 20
1156.42886209672
 30
0.0
 11
2192.499490430964
 21
1156.42886209672
 31
0.0
  0
LINE
  5
290
330
1F
100
AcDbEntity
  8
0-B
  6
Continuous
 62
   120
370
     5
100
AcDbLine
 10
2242.499490430966
 20
1096.42886209672
 30
0.0
 11
2192.499490430964
 21
1096.42886209672
 31
0.0
  0
LINE
  5
291
330
1F
100
AcDbEntity
  8
0-4
  6
Continuous
 62
    92
370
    13
100
AcDbLine
 10
2013.499156644953
 20
1096.42886209672
 30
0.0
 11
2013.499156644953
 21
1156.42886209672
 31
0.0
  0
LINE
  5
292
330
1F
100
AcDbEntity
  8
0-4
  6
Continuous
 62
    92
370
    13
100
AcDbLine
 10
2013.498822858944
 20
1152.016392232827
 30
0.0
 11
2013.498822858944
 21
1096.42886209672
 31
0.0
  0
LINE
  5
293
330
1F
100
AcDbEntity
  8
0-4
  6
Continuous
 62
    92
370
    13
100
AcDbLine
 10
2013.498822858944
 20
1096.42886209672
 30
0.0
 11
2101.498822858942
 21
1096.42886209672
 31
0.0
  0
LINE
  5
294
330
1F
100
AcDbEntity
  8
0-4
  6
Continuous
 62
    92
370
    13
100
AcDbLine
 10
2101.498489072932
 20
1096.42886209672
 30
0.0
 11
2101.498489072932
 21
1156.42886209672
 31
0.0
  0
LINE
  5
295
330
1F
100
AcDbEntity
  8
0-4
  6
Continuous
 62
    92
370
    13
100
AcDbLine
 10
2101.498822858942
 20
1096.42886209672
 30
0.0
 11
2101.498822858942
 21
1152.016392232827
 31
0.0
  0
LINE
  5
296
330
1F
100
AcDbEntity
  8
0-4
  6
Continuous
 62
    92
370
    13
100
AcDbLine
 10
2861.499156640243
 20
1096.42886209672
 30
0.0
 11
2861.499156640243
 21
1156.42886209672
 31
0.0
  0
LINE
  5
297
330
1F
100
AcDbEntity
  8
0-4
  6
Continuous
 62
    92
370
    13
100
AcDbLine
 10
2861.499490426256
 20
1096.42886209672
 30
0.0
 11
2861.499490426256
 21
1152.016392232827
 31
0.0
  0
LINE
  5
298
330
1F
100
AcDbEntity
  8
0-4
  6
Continuous
 62
    92
370
    13
100
AcDbLine
 10
2773.499824212267
 20
1096.42886209672
 30
0.0
 11
2773.499824212267
 21
1156.42886209672
 31
0.0
  0
LINE
  5
299
330
1F
100
AcDbEntity
  8
0-4
  6
Continuous
 62
    92
370
    13
100
AcDbLine
 10
2773.499490426258
 20
1152.016392232827
 30
0.0
 11
2773.499490426258
 21
1096.42886209672
 31
0.0
  0
LINE
  5
29A
330
1F
100
AcDbEntity
  8
0-4
  6
Continuous
 62
    92
370
    13
100
AcDbLine
 10
2773.499490426258
 20
1096.42886209672
 30
0.0
 11
2861.499490426256
 21
1096.42886209672
 31
0.0
  0
LINE
  5
29B
330
1F
100
AcDbEntity
  8
0-4
  6
Continuous
 62
    92
370
    13
100
AcDbLine
 10
2393.499156642599
 20
1096.42886209672
 30
0.0
 11
2481.499156642601
 21
1096.42886209672
 31
0.0
  0
LINE
  5
29C
330
1F
100
AcDbEntity
  8
0-4
  6
Continuous
 62
    92
370
    13
100
AcDbLine
 10
2101.498489072932
 20
1156.42886209672
 30
0.0
 11
2393.499490428612
 21
1156.42886209672
 31
0.0
  0
LINE
  5
29D
330
1F
100
AcDbEntity
  8
0-4
  6
Continuous
 62
    92
370
    13
100
AcDbLine
 10
2393.499490428612
 20
1096.42886209672
 30
0.0
 11
2393.499490428612
 21
1156.42886209672
 31
0.0
  0
LINE
  5
29E
330
1F
100
AcDbEntity
  8
0-4
  6
Continuous
 62
    92
370
    13
100
AcDbLine
 10
2393.499156642599
 20
1096.42886209672
 30
0.0
 11
2393.499156642599
 21
1151.429338933874
 31
0.0
  0
LINE
  5
29F
330
1F
100
AcDbEntity
  8
0-4
  6
Continuous
 62
    92
370
    13
100
AcDbLine
 10
2773.499490426258
 20
1156.42886209672
 30
0.0
 11
2481.498822856588
 21
1156.42886209672
 31
0.0
  0
LINE
  5
2A0
330
1F
100
AcDbEntity
  8
0-4
  6
Continuous
 62
    92
370
    13
100
AcDbLine
 10
2481.498822856588
 20
1096.42886209672
 30
0.0
 11
2481.498822856588
 21
1156.42886209672
 31
0.0
  0
LINE
  5
2A1
330
1F
100
AcDbEntity
  8
0-4
  6
Continuous
 62
    92
370
    13
100
AcDbLine
 10
2481.499156642601
 20
1096.42886209672
 30
0.0
 11
2481.499156642601
 21
1151.429338933874
 31
0.0
  0
LINE
  5
2A2
330
1F
100
AcDbEntity
  8
0-7
  6
Continuous
 62
     7
370
     9
100
AcDbLine
 10
2012.498822858945
 20
1156.427862096718
 30
0.0
 11
2017.927822858942
 21
1156.427862096718
 31
0.0
  0
LINE
  5
2A3
330
1F
100
AcDbEntity
  8
0-7
  6
Continuous
 62
     7
370
     9
100
AcDbLine
 10
2012.498822858945
 20
1146.42786209672
 30
0.0
 11
2012.498822858945
 21
1156.427862096718
 31
0.0
  0
LINE
  5
2A4
330
1F
100
AcDbEntity
  8
0-7
  6
Continuous
 62
     7
370
     9
100
AcDbLine
 10
2073.498822858944
 20
1114.428862096719
 30
0.0
 11
2073.498822858944
 21
1139.427862096719
 31
0.0
  0
LINE
  5
2A5
330
1F
100
AcDbEntity
  8
0-7
  6
Continuous
 62
     7
370
     9
100
AcDbLine
 10
2041.498822858939
 20
1114.428862096719
 30
0.0
 11
2041.498822858939
 21
1139.427862096719
 31
0.0
  0
LINE
  5
2A6
330
1F
100
AcDbEntity
  8
0-7
  6
Continuous
 62
     7
370
     9
100
AcDbLine
 10
2080.498822858944
 20
1096.42886209672
 30
0.0
 11
2034.498822858942
 21
1096.42886209672
 31
0.0
  0
LINE
  5
2A7
330
1F
100
AcDbEntity
  8
0-7
  6
Continuous
 62
     7
370
     9
100
AcDbLine
 10
2057.498822858945
 20
1108.428862096717
 30
0.0
 11
2060.498822858945
 21
1111.428862096719
 31
0.0
  0
LINE
  5
2A8
330
1F
100
AcDbEntity
  8
0-7
  6
Continuous
 62
     7
370
     9
100
AcDbLine
 10
2019.498822858945
 20
1096.42886209672
 30
0.0
 11
2014.639822858945
 21
1108.69186209672
 31
0.0
  0
LINE
  5
2A9
330
1F
100
AcDbEntity
  8
0-7
  6
Continuous
 62
     7
370
     9
100
AcDbLine
 10
2030.498822858945
 20
1096.42886209672
 30
0.0
 11
2019.498822858945
 21
1096.42886209672
 31
0.0
  0
LINE
  5
2AA
330
1F
100
AcDbEntity
  8
0-7
  6
Continuous
 62
     7
370
     9
100
AcDbLine
 10
2032.498822858944
 20
1098.428862096718
 30
0.0
 11
2034.498822858942
 21
1096.42886209672
 31
0.0
  0
LINE
  5
2AB
330
1F
100
AcDbEntity
  8
0-7
  6
Continuous
 62
     7
370
     9
100
AcDbLine
 10
2030.498822858945
 20
1096.42886209672
 30
0.0
 11
2032.498822858944
 21
1098.428862096718
 31
0.0
  0
LINE
  5
2AC
330
1F
100
AcDbEntity
  8
0-7
  6
Continuous
 62
     7
370
     9
100
AcDbLine
 10
2022.498822858946
 20
1111.428862096719
 30
0.0
 11
2022.498822858946
 21
1124.067862096719
 31
0.0
  0
LINE
  5
2AD
330
1F
100
AcDbEntity
  8
0-7
  6
Continuous
 62
     7
370
     9
100
AcDbLine
 10
2022.498822858946
 20
1111.428862096719
 30
0.0
 11
2016.498822858941
 21
1111.428862096719
 31
0.0
  0
LINE
  5
2AE
330
1F
100
AcDbEntity
  8
0-7
  6
Continuous
 62
     7
370
     9
100
AcDbLine
 10
2044.498822858943
 20
1111.428862096719
 30
0.0
 11
2054.49882285894
 21
1111.428862096719
 31
0.0
  0
LINE
  5
2AF
330
1F
100
AcDbEntity
  8
0-7
  6
Continuous
 62
     7
370
     9
100
AcDbLine
 10
2054.49882285894
 20
1111.428862096719
 30
0.0
 11
2057.498822858945
 21
1108.428862096717
 31
0.0
  0
LINE
  5
2B0
330
1F
100
AcDbEntity
  8
0-7
  6
Continuous
 62
     7
370
     9
100
AcDbLine
 10
2095.498822858944
 20
1096.42886209672
 30
0.0
 11
2100.357822858941
 21
1108.69186209672
 31
0.0
  0
LINE
  5
2B1
330
1F
100
AcDbEntity
  8
0-7
  6
Continuous
 62
     7
370
     9
100
AcDbLine
 10
2082.498822858942
 20
1098.428862096718
 30
0.0
 11
2080.498822858944
 21
1096.42886209672
 31
0.0
  0
LINE
  5
2B2
330
1F
100
AcDbEntity
  8
0-7
  6
Continuous
 62
     7
370
     9
100
AcDbLine
 10
2084.49882285894
 20
1096.42886209672
 30
0.0
 11
2095.498822858944
 21
1096.42886209672
 31
0.0
  0
LINE
  5
2B3
330
1F
100
AcDbEntity
  8
0-7
  6
Continuous
 62
     7
370
     9
100
AcDbLine
 10
2084.49882285894
 20
1096.42886209672
 30
0.0
 11
2082.498822858942
 21
1098.428862096718
 31
0.0
  0
LINE
  5
2B4
330
1F
100
AcDbEntity
  8
0-7
  6
Continuous
 62
     7
370
     9
100
AcDbLine
 10
2060.498822858945
 20
1111.428862096719
 30
0.0
 11
2070.498822858943
 21
1111.428862096719
 31
0.0
  0
LINE
  5
2B5
330
1F
100
AcDbEntity
  8
0-7
  6
Continuous
 62
     7
370
     9
100
AcDbLine
 10
2092.498822858947
 20
1111.428862096719
 30
0.0
 11
2092.498822858947
 21
1124.067862096719
 31
0.0
  0
LINE
  5
2B6
330
1F
100
AcDbEntity
  8
0-7
  6
Continuous
 62
     7
370
     9
100
AcDbLine
 10
2092.498822858947
 20
1111.428862096719
 30
0.0
 11
2098.498822858945
 21
1111.428862096719
 31
0.0
  0
LINE
  5
2B7
330
1F
100
AcDbEntity
  8
0-7
  6
Continuous
 62
     7
370
     9
100
AcDbLine
 10
2034.119822858944
 20
1142.306862096718
 30
0.0
 11
2021.463822858943
 21
1154.963862096717
 31
0.0
  0
LINE
  5
2B8
330
1F
100
AcDbEntity
  8
0-7
  6
Continuous
 62
     7
370
     9
100
AcDbLine
 10
2036.241822858944
 20
1141.427862096718
 30
0.0
 11
2039.498822858941
 21
1141.427862096718
 31
0.0
  0
LINE
  5
2B9
330
1F
100
AcDbEntity
  8
0-7
  6
Continuous
 62
     7
370
     9
100
AcDbLine
 10
2080.876822858945
 20
1142.306862096718
 30
0.0
 11
2093.533822858939
 21
1154.963862096717
 31
0.0
  0
LINE
  5
2BA
330
1F
100
AcDbEntity
  8
0-7
  6
Continuous
 62
     7
370
     9
100
AcDbLine
 10
2078.755822858938
 20
1141.427862096718
 30
0.0
 11
2075.498822858942
 21
1141.427862096718
 31
0.0
  0
LINE
  5
2BB
330
1F
100
AcDbEntity
  8
0-7
  6
Continuous
 62
     7
370
     9
100
AcDbLine
 10
2102.498822858941
 20
1146.42786209672
 30
0.0
 11
2102.498822858941
 21
1156.427862096718
 31
0.0
  0
LINE
  5
2BC
330
1F
100
AcDbEntity
  8
0-7
  6
Continuous
 62
     7
370
     9
100
AcDbLine
 10
2102.498822858941
 20
1156.427862096718
 30
0.0
 11
2097.069822858944
 21
1156.427862096718
 31
0.0
  0
ARC
  5
2BD
330
1F
100
AcDbEntity
  8
0-7
  6
Continuous
 62
     7
370
     9
100
AcDbCircle
 10
1992.498822858946
 20
1124.067862096719
 30
0.0
 40
30.00000000000085
100
AcDbArc
 50
0.0000000000000127
 51
48.19000000000003
  0
ARC
  5
2BE
330
1F
100
AcDbEntity
  8
0-7
  6
Continuous
 62
     7
370
     9
100
AcDbCircle
 10
2122.497822858943
 20
1124.067862096719
 30
0.0
 40
30.00000000000085
100
AcDbArc
 50
131.81
 51
180.0
  0
ARC
  5
2BF
330
1F
100
AcDbEntity
  8
0-7
  6
Continuous
 62
     7
370
     9
100
AcDbCircle
 10
2016.498822858941
 20
1109.42886209672
 30
0.0
 40
2.000000000000057
100
AcDbArc
 50
90.00000000000001
 51
201.6160000000001
  0
ARC
  5
2C0
330
1F
100
AcDbEntity
  8
0-7
  6
Continuous
 62
     7
370
     9
100
AcDbCircle
 10
2044.498822858943
 20
1114.428862096719
 30
0.0
 40
3.000000000000085
100
AcDbArc
 50
180.0
 51
270.0000000000001
  0
ARC
  5
2C1
330
1F
100
AcDbEntity
  8
0-7
  6
Continuous
 62
     7
370
     9
100
AcDbCircle
 10
2070.498822858943
 20
1114.428862096719
 30
0.0
 40
3.000000000000085
100
AcDbArc
 50
270.0000000000001
 51
0.0000000000000763
  0
ARC
  5
2C2
330
1F
100
AcDbEntity
  8
0-7
  6
Continuous
 62
     7
370
     9
100
AcDbCircle
 10
2098.498822858945
 20
1109.42886209672
 30
0.0
 40
2.000000000000057
100
AcDbArc
 50
338.3840000000001
 51
90.00000000000011
  0
ARC
  5
2C3
330
1F
100
AcDbEntity
  8
0-7
  6
Continuous
 62
     7
370
     9
100
AcDbCircle
 10
2036.241822858944
 20
1144.427862096718
 30
0.0
 40
3.000000000000085
100
AcDbArc
 50
225.0
 51
270.0000000000001
  0
ARC
  5
2C4
330
1F
100
AcDbEntity
  8
0-7
  6
Continuous
 62
     7
370
     9
100
AcDbCircle
 10
2017.927822858942
 20
1151.427862096719
 30
0.0
 40
5.000000000000142
100
AcDbArc
 50
45.00000000000003
 51
90.00000000000004
  0
ARC
  5
2C5
330
1F
100
AcDbEntity
  8
0-7
  6
Continuous
 62
     7
370
     9
100
AcDbCircle
 10
2039.498822858941
 20
1139.427862096719
 30
0.0
 40
2.000000000000057
100
AcDbArc
 50
0.0000000000000127
 51
90.00000000000004
  0
ARC
  5
2C6
330
1F
100
AcDbEntity
  8
0-7
  6
Continuous
 62
     7
370
     9
100
AcDbCircle
 10
2075.498822858942
 20
1139.427862096719
 30
0.0
 40
2.000000000000057
100
AcDbArc
 50
90.00000000000001
 51
180.0
  0
ARC
  5
2C7
330
1F
100
AcDbEntity
  8
0-7
  6
Continuous
 62
     7
370
     9
100
AcDbCircle
 10
2078.755822858938
 20
1144.427862096718
 30
0.0
 40
3.000000000000085
100
AcDbArc
 50
270.0000000000001
 51
315.0000000000001
  0
ARC
  5
2C8
330
1F
100
AcDbEntity
  8
0-7
  6
Continuous
 62
     7
370
     9
100
AcDbCircle
 10
2097.069822858944
 20
1151.427862096719
 30
0.0
 40
5.000000000000142
100
AcDbArc
 50
90.00000000000006
 51
135.0000000000001
  0
LINE
  5
2C9
330
1F
100
AcDbEntity
  8
0-7
  6
Continuous
 62
     7
370
     9
100
AcDbLine
 10
2392.4991566426
 20
1156.427862096718
 30
0.0
 11
2397.928156642597
 21
1156.427862096718
 31
0.0
  0
LINE
  5
2CA
330
1F
100
AcDbEntity
  8
0-7
  6
Continuous
 62
     7
370
     9
100
AcDbLine
 10
2392.4991566426
 20
1146.42786209672
 30
0.0
 11
2392.4991566426
 21
1156.427862096718
 31
0.0
  0
LINE
  5
2CB
330
1F
100
AcDbEntity
  8
0-7
  6
Continuous
 62
     7
370
     9
100
AcDbLine
 10
2453.499156642602
 20
1114.428862096719
 30
0.0
 11
2453.499156642602
 21
1139.427862096719
 31
0.0
  0
LINE
  5
2CC
330
1F
100
AcDbEntity
  8
0-7
  6
Continuous
 62
     7
370
     9
100
AcDbLine
 10
2421.499156642597
 20
1114.428862096719
 30
0.0
 11
2421.499156642597
 21
1139.427862096719
 31
0.0
  0
LINE
  5
2CD
330
1F
100
AcDbEntity
  8
0-7
  6
Continuous
 62
     7
370
     9
100
AcDbLine
 10
2460.499156642599
 20
1096.42886209672
 30
0.0
 11
2414.4991566426
 21
1096.42886209672
 31
0.0
  0
LINE
  5
2CE
330
1F
100
AcDbEntity
  8
0-7
  6
Continuous
 62
     7
370
     9
100
AcDbLine
 10
2437.4991566426
 20
1108.428862096717
 30
0.0
 11
2440.499156642604
 21
1111.428862096719
 31
0.0
  0
LINE
  5
2CF
330
1F
100
AcDbEntity
  8
0-7
  6
Continuous
 62
     7
370
     9
100
AcDbLine
 10
2399.4991566426
 20
1096.42886209672
 30
0.0
 11
2394.640156642603
 21
1108.69186209672
 31
0.0
  0
LINE
  5
2D0
330
1F
100
AcDbEntity
  8
0-7
  6
Continuous
 62
     7
370
     9
100
AcDbLine
 10
2410.499156642604
 20
1096.42886209672
 30
0.0
 11
2399.4991566426
 21
1096.42886209672
 31
0.0
  0
LINE
  5
2D1
330
1F
100
AcDbEntity
  8
0-7
  6
Continuous
 62
     7
370
     9
100
AcDbLine
 10
2412.499156642602
 20
1098.428862096718
 30
0.0
 11
2414.4991566426
 21
1096.42886209672
 31
0.0
  0
LINE
  5
2D2
330
1F
100
AcDbEntity
  8
0-7
  6
Continuous
 62
     7
370
     9
100
AcDbLine
 10
2410.499156642604
 20
1096.42886209672
 30
0.0
 11
2412.499156642602
 21
1098.428862096718
 31
0.0
  0
LINE
  5
2D3
330
1F
100
AcDbEntity
  8
0-7
  6
Continuous
 62
     7
370
     9
100
AcDbLine
 10
2402.499156642604
 20
1111.428862096719
 30
0.0
 11
2402.499156642604
 21
1124.067862096719
 31
0.0
  0
LINE
  5
2D4
330
1F
100
AcDbEntity
  8
0-7
  6
Continuous
 62
     7
370
     9
100
AcDbLine
 10
2402.499156642604
 20
1111.428862096719
 30
0.0
 11
2396.499156642596
 21
1111.428862096719
 31
0.0
  0
LINE
  5
2D5
330
1F
100
AcDbEntity
  8
0-7
  6
Continuous
 62
     7
370
     9
100
AcDbLine
 10
2424.499156642598
 20
1111.428862096719
 30
0.0
 11
2434.499156642596
 21
1111.428862096719
 31
0.0
  0
LINE
  5
2D6
330
1F
100
AcDbEntity
  8
0-7
  6
Continuous
 62
     7
370
     9
100
AcDbLine
 10
2434.499156642596
 20
1111.428862096719
 30
0.0
 11
2437.4991566426
 21
1108.428862096717
 31
0.0
  0
LINE
  5
2D7
330
1F
100
AcDbEntity
  8
0-7
  6
Continuous
 62
     7
370
     9
100
AcDbLine
 10
2475.499156642599
 20
1096.42886209672
 30
0.0
 11
2480.358156642596
 21
1108.69186209672
 31
0.0
  0
LINE
  5
2D8
330
1F
100
AcDbEntity
  8
0-7
  6
Continuous
 62
     7
370
     9
100
AcDbLine
 10
2462.499156642597
 20
1098.428862096718
 30
0.0
 11
2460.499156642599
 21
1096.42886209672
 31
0.0
  0
LINE
  5
2D9
330
1F
100
AcDbEntity
  8
0-7
  6
Continuous
 62
     7
370
     9
100
AcDbLine
 10
2464.499156642596
 20
1096.42886209672
 30
0.0
 11
2475.499156642599
 21
1096.42886209672
 31
0.0
  0
LINE
  5
2DA
330
1F
100
AcDbEntity
  8
0-7
  6
Continuous
 62
     7
370
     9
100
AcDbLine
 10
2464.499156642596
 20
1096.42886209672
 30
0.0
 11
2462.499156642597
 21
1098.428862096718
 31
0.0
  0
LINE
  5
2DB
330
1F
100
AcDbEntity
  8
0-7
  6
Continuous
 62
     7
370
     9
100
AcDbLine
 10
2440.499156642604
 20
1111.428862096719
 30
0.0
 11
2450.499156642602
 21
1111.428862096719
 31
0.0
  0
LINE
  5
2DC
330
1F
100
AcDbEntity
  8
0-7
  6
Continuous
 62
     7
370
     9
100
AcDbLine
 10
2472.499156642602
 20
1111.428862096719
 30
0.0
 11
2472.499156642602
 21
1124.067862096719
 31
0.0
  0
LINE
  5
2DD
330
1F
100
AcDbEntity
  8
0-7
  6
Continuous
 62
     7
370
     9
100
AcDbLine
 10
2472.499156642602
 20
1111.428862096719
 30
0.0
 11
2478.499156642603
 21
1111.428862096719
 31
0.0
  0
LINE
  5
2DE
330
1F
100
AcDbEntity
  8
0-7
  6
Continuous
 62
     7
370
     9
100
AcDbLine
 10
2414.120156642602
 20
1142.306862096718
 30
0.0
 11
2401.464156642602
 21
1154.963862096717
 31
0.0
  0
LINE
  5
2DF
330
1F
100
AcDbEntity
  8
0-7
  6
Continuous
 62
     7
370
     9
100
AcDbLine
 10
2416.242156642603
 20
1141.427862096718
 30
0.0
 11
2419.499156642599
 21
1141.427862096718
 31
0.0
  0
LINE
  5
2E0
330
1F
100
AcDbEntity
  8
0-7
  6
Continuous
 62
     7
370
     9
100
AcDbLine
 10
2460.8771566426
 20
1142.306862096718
 30
0.0
 11
2473.534156642598
 21
1154.963862096717
 31
0.0
  0
LINE
  5
2E1
330
1F
100
AcDbEntity
  8
0-7
  6
Continuous
 62
     7
370
     9
100
AcDbLine
 10
2458.756156642597
 20
1141.427862096718
 30
0.0
 11
2455.499156642601
 21
1141.427862096718
 31
0.0
  0
LINE
  5
2E2
330
1F
100
AcDbEntity
  8
0-7
  6
Continuous
 62
     7
370
     9
100
AcDbLine
 10
2482.4991566426
 20
1146.42786209672
 30
0.0
 11
2482.4991566426
 21
1156.427862096718
 31
0.0
  0
LINE
  5
2E3
330
1F
100
AcDbEntity
  8
0-7
  6
Continuous
 62
     7
370
     9
100
AcDbLine
 10
2482.4991566426
 20
1156.427862096718
 30
0.0
 11
2477.070156642603
 21
1156.427862096718
 31
0.0
  0
ARC
  5
2E4
330
1F
100
AcDbEntity
  8
0-7
  6
Continuous
 62
     7
370
     9
100
AcDbCircle
 10
2372.499156642604
 20
1124.067862096719
 30
0.0
 40
30.00000000000085
100
AcDbArc
 50
0.0000000000000127
 51
48.19000000000003
  0
ARC
  5
2E5
330
1F
100
AcDbEntity
  8
0-7
  6
Continuous
 62
     7
370
     9
100
AcDbCircle
 10
2502.498156642598
 20
1124.067862096719
 30
0.0
 40
30.00000000000085
100
AcDbArc
 50
131.81
 51
180.0
  0
ARC
  5
2E6
330
1F
100
AcDbEntity
  8
0-7
  6
Continuous
 62
     7
370
     9
100
AcDbCircle
 10
2396.499156642596
 20
1109.42886209672
 30
0.0
 40
2.000000000000057
100
AcDbArc
 50
90.00000000000001
 51
201.6160000000001
  0
ARC
  5
2E7
330
1F
100
AcDbEntity
  8
0-7
  6
Continuous
 62
     7
370
     9
100
AcDbCircle
 10
2424.499156642598
 20
1114.428862096719
 30
0.0
 40
3.000000000000085
100
AcDbArc
 50
180.0
 51
270.0000000000001
  0
ARC
  5
2E8
330
1F
100
AcDbEntity
  8
0-7
  6
Continuous
 62
     7
370
     9
100
AcDbCircle
 10
2450.499156642602
 20
1114.428862096719
 30
0.0
 40
3.000000000000085
100
AcDbArc
 50
270.0000000000001
 51
0.0000000000000763
  0
ARC
  5
2E9
330
1F
100
AcDbEntity
  8
0-7
  6
Continuous
 62
     7
370
     9
100
AcDbCircle
 10
2478.499156642603
 20
1109.42886209672
 30
0.0
 40
2.000000000000057
100
AcDbArc
 50
338.3840000000001
 51
90.00000000000011
  0
ARC
  5
2EA
330
1F
100
AcDbEntity
  8
0-7
  6
Continuous
 62
     7
370
     9
100
AcDbCircle
 10
2416.242156642603
 20
1144.427862096718
 30
0.0
 40
3.000000000000085
100
AcDbArc
 50
225.0
 51
270.0000000000001
  0
ARC
  5
2EB
330
1F
100
AcDbEntity
  8
0-7
  6
Continuous
 62
     7
370
     9
100
AcDbCircle
 10
2397.928156642597
 20
1151.427862096719
 30
0.0
 40
5.000000000000142
100
AcDbArc
 50
45.00000000000003
 51
90.00000000000004
  0
ARC
  5
2EC
330
1F
100
AcDbEntity
  8
0-7
  6
Continuous
 62
     7
370
     9
100
AcDbCircle
 10
2419.499156642599
 20
1139.427862096719
 30
0.0
 40
2.000000000000057
100
AcDbArc
 50
0.0000000000000127
 51
90.00000000000004
  0
ARC
  5
2ED
330
1F
100
AcDbEntity
  8
0-7
  6
Continuous
 62
     7
370
     9
100
AcDbCircle
 10
2455.499156642601
 20
1139.427862096719
 30
0.0
 40
2.000000000000057
100
AcDbArc
 50
90.00000000000001
 51
180.0
  0
ARC
  5
2EE
330
1F
100
AcDbEntity
  8
0-7
  6
Continuous
 62
     7
370
     9
100
AcDbCircle
 10
2458.756156642597
 20
1144.427862096718
 30
0.0
 40
3.000000000000085
100
AcDbArc
 50
270.0000000000001
 51
315.0000000000001
  0
ARC
  5
2EF
330
1F
100
AcDbEntity
  8
0-7
  6
Continuous
 62
     7
370
     9
100
AcDbCircle
 10
2477.070156642603
 20
1151.427862096719
 30
0.0
 40
5.000000000000142
100
AcDbArc
 50
90.00000000000006
 51
135.0000000000001
  0
LINE
  5
2F0
330
1F
100
AcDbEntity
  8
0-7
  6
Continuous
 62
     7
370
     9
100
AcDbLine
 10
2772.499490426258
 20
1156.427862096718
 30
0.0
 11
2777.928490426255
 21
1156.427862096718
 31
0.0
  0
LINE
  5
2F1
330
1F
100
AcDbEntity
  8
0-7
  6
Continuous
 62
     7
370
     9
100
AcDbLine
 10
2772.499490426258
 20
1146.42786209672
 30
0.0
 11
2772.499490426258
 21
1156.427862096718
 31
0.0
  0
LINE
  5
2F2
330
1F
100
AcDbEntity
  8
0-7
  6
Continuous
 62
     7
370
     9
100
AcDbLine
 10
2833.499490426261
 20
1114.428862096719
 30
0.0
 11
2833.499490426261
 21
1139.427862096719
 31
0.0
  0
LINE
  5
2F3
330
1F
100
AcDbEntity
  8
0-7
  6
Continuous
 62
     7
370
     9
100
AcDbLine
 10
2801.499490426256
 20
1114.428862096719
 30
0.0
 11
2801.499490426256
 21
1139.427862096719
 31
0.0
  0
LINE
  5
2F4
330
1F
100
AcDbEntity
  8
0-7
  6
Continuous
 62
     7
370
     9
100
AcDbLine
 10
2840.499490426258
 20
1096.42886209672
 30
0.0
 11
2794.499490426255
 21
1096.42886209672
 31
0.0
  0
LINE
  5
2F5
330
1F
100
AcDbEntity
  8
0-7
  6
Continuous
 62
     7
370
     9
100
AcDbLine
 10
2817.499490426255
 20
1108.428862096717
 30
0.0
 11
2820.499490426259
 21
1111.428862096719
 31
0.0
  0
LINE
  5
2F6
330
1F
100
AcDbEntity
  8
0-7
  6
Continuous
 62
     7
370
     9
100
AcDbLine
 10
2779.499490426255
 20
1096.42886209672
 30
0.0
 11
2774.640490426259
 21
1108.69186209672
 31
0.0
  0
LINE
  5
2F7
330
1F
100
AcDbEntity
  8
0-7
  6
Continuous
 62
     7
370
     9
100
AcDbLine
 10
2790.499490426259
 20
1096.42886209672
 30
0.0
 11
2779.499490426255
 21
1096.42886209672
 31
0.0
  0
LINE
  5
2F8
330
1F
100
AcDbEntity
  8
0-7
  6
Continuous
 62
     7
370
     9
100
AcDbLine
 10
2792.499490426257
 20
1098.428862096718
 30
0.0
 11
2794.499490426255
 21
1096.42886209672
 31
0.0
  0
LINE
  5
2F9
330
1F
100
AcDbEntity
  8
0-7
  6
Continuous
 62
     7
370
     9
100
AcDbLine
 10
2790.499490426259
 20
1096.42886209672
 30
0.0
 11
2792.499490426257
 21
1098.428862096718
 31
0.0
  0
LINE
  5
2FA
330
1F
100
AcDbEntity
  8
0-7
  6
Continuous
 62
     7
370
     9
100
AcDbLine
 10
2782.499490426259
 20
1111.428862096719
 30
0.0
 11
2782.499490426259
 21
1124.067862096719
 31
0.0
  0
LINE
  5
2FB
330
1F
100
AcDbEntity
  8
0-7
  6
Continuous
 62
     7
370
     9
100
AcDbLine
 10
2782.499490426259
 20
1111.428862096719
 30
0.0
 11
2776.499490426255
 21
1111.428862096719
 31
0.0
  0
LINE
  5
2FC
330
1F
100
AcDbEntity
  8
0-7
  6
Continuous
 62
     7
370
     9
100
AcDbLine
 10
2804.499490426257
 20
1111.428862096719
 30
0.0
 11
2814.499490426254
 21
1111.428862096719
 31
0.0
  0
LINE
  5
2FD
330
1F
100
AcDbEntity
  8
0-7
  6
Continuous
 62
     7
370
     9
100
AcDbLine
 10
2814.499490426254
 20
1111.428862096719
 30
0.0
 11
2817.499490426255
 21
1108.428862096717
 31
0.0
  0
LINE
  5
2FE
330
1F
100
AcDbEntity
  8
0-7
  6
Continuous
 62
     7
370
     9
100
AcDbLine
 10
2855.499490426254
 20
1096.42886209672
 30
0.0
 11
2860.358490426255
 21
1108.69186209672
 31
0.0
  0
LINE
  5
2FF
330
1F
100
AcDbEntity
  8
0-7
  6
Continuous
 62
     7
370
     9
100
AcDbLine
 10
2842.499490426256
 20
1098.428862096718
 30
0.0
 11
2840.499490426258
 21
1096.42886209672
 31
0.0
  0
LINE
  5
300
330
1F
100
AcDbEntity
  8
0-7
  6
Continuous
 62
     7
370
     9
100
AcDbLine
 10
2844.499490426254
 20
1096.42886209672
 30
0.0
 11
2855.499490426254
 21
1096.42886209672
 31
0.0
  0
LINE
  5
301
330
1F
100
AcDbEntity
  8
0-7
  6
Continuous
 62
     7
370
     9
100
AcDbLine
 10
2844.499490426254
 20
1096.42886209672
 30
0.0
 11
2842.499490426256
 21
1098.428862096718
 31
0.0
  0
LINE
  5
302
330
1F
100
AcDbEntity
  8
0-7
  6
Continuous
 62
     7
370
     9
100
AcDbLine
 10
2820.499490426259
 20
1111.428862096719
 30
0.0
 11
2830.499490426257
 21
1111.428862096719
 31
0.0
  0
LINE
  5
303
330
1F
100
AcDbEntity
  8
0-7
  6
Continuous
 62
     7
370
     9
100
AcDbLine
 10
2852.499490426257
 20
1111.428862096719
 30
0.0
 11
2852.499490426257
 21
1124.067862096719
 31
0.0
  0
LINE
  5
304
330
1F
100
AcDbEntity
  8
0-7
  6
Continuous
 62
     7
370
     9
100
AcDbLine
 10
2852.499490426257
 20
1111.428862096719
 30
0.0
 11
2858.499490426258
 21
1111.428862096719
 31
0.0
  0
LINE
  5
305
330
1F
100
AcDbEntity
  8
0-7
  6
Continuous
 62
     7
370
     9
100
AcDbLine
 10
2794.120490426257
 20
1142.306862096718
 30
0.0
 11
2781.46449042626
 21
1154.963862096717
 31
0.0
  0
LINE
  5
306
330
1F
100
AcDbEntity
  8
0-7
  6
Continuous
 62
     7
370
     9
100
AcDbLine
 10
2796.242490426261
 20
1141.427862096718
 30
0.0
 11
2799.499490426258
 21
1141.427862096718
 31
0.0
  0
LINE
  5
307
330
1F
100
AcDbEntity
  8
0-7
  6
Continuous
 62
     7
370
     9
100
AcDbLine
 10
2840.877490426259
 20
1142.306862096718
 30
0.0
 11
2853.534490426257
 21
1154.963862096717
 31
0.0
  0
LINE
  5
308
330
1F
100
AcDbEntity
  8
0-7
  6
Continuous
 62
     7
370
     9
100
AcDbLine
 10
2838.756490426255
 20
1141.427862096718
 30
0.0
 11
2835.499490426259
 21
1141.427862096718
 31
0.0
  0
LINE
  5
309
330
1F
100
AcDbEntity
  8
0-7
  6
Continuous
 62
     7
370
     9
100
AcDbLine
 10
2862.499490426255
 20
1146.42786209672
 30
0.0
 11
2862.499490426255
 21
1156.427862096718
 31
0.0
  0
LINE
  5
30A
330
1F
100
AcDbEntity
  8
0-7
  6
Continuous
 62
     7
370
     9
100
AcDbLine
 10
2862.499490426255
 20
1156.427862096718
 30
0.0
 11
2857.070490426258
 21
1156.427862096718
 31
0.0
  0
ARC
  5
30B
330
1F
100
AcDbEntity
  8
0-7
  6
Continuous
 62
     7
370
     9
100
AcDbCircle
 10
2752.499490426259
 20
1124.067862096719
 30
0.0
 40
30.00000000000085
100
AcDbArc
 50
0.0000000000000127
 51
48.19000000000003
  0
ARC
  5
30C
330
1F
100
AcDbEntity
  8
0-7
  6
Continuous
 62
     7
370
     9
100
AcDbCircle
 10
2882.498490426256
 20
1124.067862096719
 30
0.0
 40
30.00000000000085
100
AcDbArc
 50
131.81
 51
180.0
  0
ARC
  5
30D
330
1F
100
AcDbEntity
  8
0-7
  6
Continuous
 62
     7
370
     9
100
AcDbCircle
 10
2776.499490426255
 20
1109.42886209672
 30
0.0
 40
2.000000000000057
100
AcDbArc
 50
90.00000000000001
 51
201.6160000000001
  0
ARC
  5
30E
330
1F
100
AcDbEntity
  8
0-7
  6
Continuous
 62
     7
370
     9
100
AcDbCircle
 10
2804.499490426257
 20
1114.428862096719
 30
0.0
 40
3.000000000000085
100
AcDbArc
 50
180.0
 51
270.0000000000001
  0
ARC
  5
30F
330
1F
100
AcDbEntity
  8
0-7
  6
Continuous
 62
     7
370
     9
100
AcDbCircle
 10
2830.499490426257
 20
1114.428862096719
 30
0.0
 40
3.000000000000085
100
AcDbArc
 50
270.0000000000001
 51
0.0000000000000763
  0
ARC
  5
310
330
1F
100
AcDbEntity
  8
0-7
  6
Continuous
 62
     7
370
     9
100
AcDbCircle
 10
2858.499490426258
 20
1109.42886209672
 30
0.0
 40
2.000000000000057
100
AcDbArc
 50
338.3840000000001
 51
90.00000000000011
  0
ARC
  5
311
330
1F
100
AcDbEntity
  8
0-7
  6
Continuous
 62
     7
370
     9
100
AcDbCircle
 10
2796.242490426261
 20
1144.427862096718
 30
0.0
 40
3.000000000000085
100
AcDbArc
 50
225.0
 51
270.0000000000001
  0
ARC
  5
312
330
1F
100
AcDbEntity
  8
0-7
  6
Continuous
 62
     7
370
     9
100
AcDbCircle
 10
2777.928490426255
 20
1151.427862096719
 30
0.0
 40
5.000000000000142
100
AcDbArc
 50
45.00000000000003
 51
90.00000000000004
  0
ARC
  5
313
330
1F
100
AcDbEntity
  8
0-7
  6
Continuous
 62
     7
370
     9
100
AcDbCircle
 10
2799.499490426258
 20
1139.427862096719
 30
0.0
 40
2.000000000000057
100
AcDbArc
 50
0.0000000000000127
 51
90.00000000000004
  0
ARC
  5
314
330
1F
100
AcDbEntity
  8
0-7
  6
Continuous
 62
     7
370
     9
100
AcDbCircle
 10
2835.499490426259
 20
1139.427862096719
 30
0.0
 40
2.000000000000057
100
AcDbArc
 50
90.00000000000001
 51
180.0
  0
ARC
  5
315
330
1F
100
AcDbEntity
  8
0-7
  6
Continuous
 62
     7
370
     9
100
AcDbCircle
 10
2838.756490426255
 20
1144.427862096718
 30
0.0
 40
3.000000000000085
100
AcDbArc
 50
270.0000000000001
 51
315.0000000000001
  0
ARC
  5
316
330
1F
100
AcDbEntity
  8
0-7
  6
Continuous
 62
     7
370
     9
100
AcDbCircle
 10
2857.070490426258
 20
1151.427862096719
 30
0.0
 40
5.000000000000142
100
AcDbArc
 50
90.00000000000006
 51
135.0000000000001
  0
LINE
  5
317
330
1F
100
AcDbEntity
  8
0-4
  6
Continuous
 62
    92
370
    13
100
AcDbLine
 10
1572.498822858946
 20
1156.42886209672
 30
0.0
 11
2013.499156644953
 21
1156.42886209672
 31
0.0
  0
LINE
  5
318
330
1F
100
AcDbEntity
  8
0-B
  6
Continuous
 62
   120
370
     5
100
AcDbLine
 10
1542.498822858944
 20
1306.42886209672
 30
0.0
 11
2013.499156644953
 21
1306.42886209672
 31
0.0
  0
LWPOLYLINE
  5
319
330
1F
100
AcDbEntity
  8
0-B
  6
Continuous
 62
     7
370
     9
100
AcDbPolyline
 90
        4
 70
     1
 43
3.0
 10
2014.999156644953
 20
1306.42886209672
 42
0.4142135623731
 10
2013.499156644953
 20
1307.92886209672
 42
0.4142135623731
 10
2011.999156644953
 20
1306.42886209672
 42
0.4142135623731
 10
2013.499156644953
 20
1304.92886209672
 42
0.4142135623731
  0
LINE
  5
31A
330
1F
100
AcDbEntity
  8
0-B
  6
Continuous
 62
   120
370
     5
100
AcDbLine
 10
2013.499156644953
 20
1306.42886209672
 30
0.0
 11
2013.499156644953
 21
1206.42886209672
 31
0.0
  0
LINE
  5
31B
330
1F
100
AcDbEntity
  8
0-B
  6
Continuous
 62
   120
370
     5
100
AcDbLine
 10
2013.499156644953
 20
1306.42886209672
 30
0.0
 11
2101.498489072932
 21
1306.42886209672
 31
0.0
  0
LWPOLYLINE
  5
31C
330
1F
100
AcDbEntity
  8
0-B
  6
Continuous
 62
     7
370
     9
100
AcDbPolyline
 90
        4
 70
     1
 43
3.0
 10
2102.998489072932
 20
1306.42886209672
 42
0.4142135623731
 10
2101.498489072932
 20
1307.92886209672
 42
0.4142135623731
 10
2099.998489072933
 20
1306.42886209672
 42
0.4142135623731
 10
2101.498489072932
 20
1304.92886209672
 42
0.4142135623731
  0
LINE
  5
31D
330
1F
100
AcDbEntity
  8
0-B
  6
Continuous
 62
   120
370
     5
100
AcDbLine
 10
2101.498489072932
 20
1306.42886209672
 30
0.0
 11
2101.498489072932
 21
1206.42886209672
 31
0.0
  0
LINE
  5
31E
330
1F
100
AcDbEntity
  8
0-B
  6
Continuous
 62
   120
370
     5
100
AcDbLine
 10
2101.498489072932
 20
1306.42886209672
 30
0.0
 11
2393.499156642599
 21
1306.42886209672
 31
0.0
  0
LWPOLYLINE
  5
31F
330
1F
100
AcDbEntity
  8
0-B
  6
Continuous
 62
     7
370
     9
100
AcDbPolyline
 90
        4
 70
     1
 43
3.0
 10
2394.999156642599
 20
1306.42886209672
 42
0.4142135623731
 10
2393.499156642599
 20
1307.92886209672
 42
0.4142135623731
 10
2391.999156642599
 20
1306.42886209672
 42
0.4142135623731
 10
2393.499156642599
 20
1304.92886209672
 42
0.4142135623731
  0
LINE
  5
320
330
1F
100
AcDbEntity
  8
0-B
  6
Continuous
 62
   120
370
     5
100
AcDbLine
 10
2393.499156642599
 20
1306.42886209672
 30
0.0
 11
2393.499156642599
 21
1206.42886209672
 31
0.0
  0
LINE
  5
321
330
1F
100
AcDbEntity
  8
0-B
  6
Continuous
 62
   120
370
     5
100
AcDbLine
 10
2393.499156642599
 20
1306.42886209672
 30
0.0
 11
2481.499156642601
 21
1306.42886209672
 31
0.0
  0
LWPOLYLINE
  5
322
330
1F
100
AcDbEntity
  8
0-B
  6
Continuous
 62
     7
370
     9
100
AcDbPolyline
 90
        4
 70
     1
 43
3.0
 10
2482.999156642601
 20
1306.42886209672
 42
0.4142135623731
 10
2481.499156642601
 20
1307.92886209672
 42
0.4142135623731
 10
2479.999156642601
 20
1306.42886209672
 42
0.4142135623731
 10
2481.499156642601
 20
1304.92886209672
 42
0.4142135623731
  0
LINE
  5
323
330
1F
100
AcDbEntity
  8
0-B
  6
Continuous
 62
   120
370
     5
100
AcDbLine
 10
2481.499156642601
 20
1306.42886209672
 30
0.0
 11
2481.499156642601
 21
1206.42886209672
 31
0.0
  0
LINE
  5
324
330
1F
100
AcDbEntity
  8
0-B
  6
Continuous
 62
   120
370
     5
100
AcDbLine
 10
2481.499156642601
 20
1306.42886209672
 30
0.0
 11
2773.499490426258
 21
1306.42886209672
 31
0.0
  0
LWPOLYLINE
  5
325
330
1F
100
AcDbEntity
  8
0-B
  6
Continuous
 62
     7
370
     9
100
AcDbPolyline
 90
        4
 70
     1
 43
3.0
 10
2774.999490426258
 20
1306.42886209672
 42
0.4142135623731
 10
2773.499490426258
 20
1307.92886209672
 42
0.4142135623731
 10
2771.999490426258
 20
1306.42886209672
 42
0.4142135623731
 10
2773.499490426258
 20
1304.92886209672
 42
0.4142135623731
  0
LINE
  5
326
330
1F
100
AcDbEntity
  8
0-B
  6
Continuous
 62
   120
370
     5
100
AcDbLine
 10
2773.499490426258
 20
1306.42886209672
 30
0.0
 11
2773.499490426258
 21
1206.42886209672
 31
0.0
  0
LINE
  5
327
330
1F
100
AcDbEntity
  8
0-B
  6
Continuous
 62
   120
370
     5
100
AcDbLine
 10
2773.499490426258
 20
1306.42886209672
 30
0.0
 11
2861.499490426256
 21
1306.42886209672
 31
0.0
  0
LWPOLYLINE
  5
328
330
1F
100
AcDbEntity
  8
0-B
  6
Continuous
 62
     7
370
     9
100
AcDbPolyline
 90
        4
 70
     1
 43
3.0
 10
2862.999490426256
 20
1306.42886209672
 42
0.4142135623731
 10
2861.499490426256
 20
1307.92886209672
 42
0.4142135623731
 10
2859.999490426256
 20
1306.42886209672
 42
0.4142135623731
 10
2861.499490426256
 20
1304.92886209672
 42
0.4142135623731
  0
LINE
  5
329
330
1F
100
AcDbEntity
  8
0-B
  6
Continuous
 62
   120
370
     5
100
AcDbLine
 10
2861.499490426256
 20
1306.42886209672
 30
0.0
 11
2861.499490426256
 21
1206.42886209672
 31
0.0
  0
LINE
  5
32A
330
1F
100
AcDbEntity
  8
0-B
  6
Continuous
 62
   120
370
     5
100
AcDbLine
 10
2861.499490426256
 20
1306.42886209672
 30
0.0
 11
3234.999490426257
 21
1306.42886209672
 31
0.0
  0
LINE
  5
32B
330
1F
100
AcDbEntity
  8
0-4
  6
Continuous
 62
    92
370
    13
100
AcDbLine
 10
2013.498822858944
 20
1151.428862096717
 30
0.0
 11
1572.498822858946
 21
1151.428862096717
 31
0.0
  0
LINE
  5
32C
330
1F
100
AcDbEntity
  8
0-4
  6
Continuous
 62
    92
370
    13
100
AcDbLine
 10
2393.499490428612
 20
1151.428862096717
 30
0.0
 11
2101.498822858942
 21
1151.428862096717
 31
0.0
  0
LINE
  5
32D
330
1F
100
AcDbEntity
  8
0-4
  6
Continuous
 62
    92
370
    13
100
AcDbLine
 10
2982.499490426255
 20
1151.428862096717
 30
0.0
 11
2861.499490426256
 21
1151.428862096717
 31
0.0
  0
LINE
  5
32E
330
1F
100
AcDbEntity
  8
0-4
  6
Continuous
 62
    92
370
    13
100
AcDbLine
 10
2773.499490426258
 20
1151.428862096717
 30
0.0
 11
2481.499156642601
 21
1151.428862096717
 31
0.0
  0
MTEXT
  5
32F
330
1F
100
AcDbEntity
  8
0-A
  6
Continuous
 62
     7
370
     9
100
AcDbMText
 10
3532.499897931074
 20
3553.844026901606
 30
0.0
 40
68.58000000000001
 41
720.0
 46
0.0
 71
     7
 72
     1
  1
{\fＭＳ ゴシック|b0|i0|c128|p49;3,560×186×30.0}
 73
     1
 44
1.0
  0
MTEXT
  5
330
330
1F
100
AcDbEntity
  8
0-A
  6
Continuous
 62
     7
370
     9
100
AcDbMText
 10
5429.999897931076
 20
3553.844026901606
 30
0.0
 40
68.58
 41
45.0
 46
0.0
 71
     7
 72
     1
  1
{\fＭＳ ゴシック|b0|i0|c128|p49;1}
 73
     1
 44
1.0
  0
MTEXT
  5
331
330
1F
100
AcDbEntity
  8
0-A
  6
Continuous
 62
     7
370
     9
100
AcDbMText
 10
1147.499699979216
 20
3545.720624270054
 30
0.0
 40
91.44
 41
360.0
 46
0.0
 71
     7
 72
     1
  1
{\fＭＳ ゴシック|b0|i0|c128|p49;調整枠}
 73
     1
 44
1.0
  0
MTEXT
  5
332
330
1F
100
AcDbEntity
  8
0-A
  6
Continuous
 62
     7
370
     0
100
AcDbMText
 10
952.5006278785518
 20
2864.29182197129
 30
0.0
 40
91.44
 41
480.0
 46
0.0
 71
     7
 72
     1
  1
{\f@ＭＳ ゴシック|b0|i0|c128|p49;鴨居・・}
 11
-1.836909530733566E-16
 21
-1.0
 31
0.0
 73
     1
 44
1.0
  0
MTEXT
  5
333
330
1F
100
AcDbEntity
  8
0-A
  6
Continuous
 62
     7
370
     9
100
AcDbMText
 10
5429.999897931076
 20
2482.415386985225
 30
0.0
 40
68.58
 41
45.0
 46
0.0
 71
     7
 72
     1
  1
{\fＭＳ ゴシック|b0|i0|c128|p49;1}
 73
     1
 44
1.0
  0
MTEXT
  5
334
330
1F
100
AcDbEntity
  8
0-A
  6
Continuous
 62
     7
370
     9
100
AcDbMText
 10
3532.499897931074
 20
1410.986747068848
 30
0.0
 40
68.58000000000001
 41
720.0
 46
0.0
 71
     7
 72
     1
  1
{\fＭＳ ゴシック|b0|i0|c128|p49;3,600×147×15.0}
 73
     1
 44
1.0
  0
MTEXT
  5
335
330
1F
100
AcDbEntity
  8
0-A
  6
Continuous
 62
     7
370
     9
100
AcDbMText
 10
5429.999897931076
 20
1410.986747068848
 30
0.0
 40
68.58
 41
45.0
 46
0.0
 71
     7
 72
     1
  1
{\fＭＳ ゴシック|b0|i0|c128|p49;1}
 73
     1
 44
1.0
  0
MTEXT
  5
336
330
1F
100
AcDbEntity
  8
0-B
  6
Continuous
 62
     7
370
   211
100
AcDbMText
 10
1686.748822858941
 20
1300.00511209672
 30
0.0
 40
77.15249999999999
 41
202.5
 46
0.0
 71
     7
 72
     1
  1
{\fＭＳ ゴシック|b0|i0|c128|p49;47.1}
 73
     1
 44
1.0
  0
MTEXT
  5
337
330
1F
100
AcDbEntity
  8
0-B
  6
Continuous
 62
     7
370
   211
100
AcDbMText
 10
1982.498822858941
 20
1299.52886209672
 30
0.0
 40
76.19999999999999
 41
150.0
 46
0.0
 71
     7
 72
     1
  1
{\fＭＳ ゴシック|b0|i0|c128|p49;8.8}
 73
     1
 44
1.0
  0
MTEXT
  5
338
330
1F
100
AcDbEntity
  8
0-B
  6
Continuous
 62
     7
370
   211
100
AcDbMText
 10
2362.4991566426
 20
1299.52886209672
 30
0.0
 40
76.19999999999999
 41
150.0
 46
0.0
 71
     7
 72
     1
  1
{\fＭＳ ゴシック|b0|i0|c128|p49;8.8}
 73
     1
 44
1.0
  0
MTEXT
  5
339
330
1F
100
AcDbEntity
  8
0-B
  6
Continuous
 62
     7
370
   211
100
AcDbMText
 10
2742.499490426255
 20
1299.52886209672
 30
0.0
 40
76.19999999999999
 41
150.0
 46
0.0
 71
     7
 72
     1
  1
{\fＭＳ ゴシック|b0|i0|c128|p49;8.8}
 73
     1
 44
1.0
  0
MTEXT
  5
33A
330
1F
100
AcDbEntity
  8
0-B
  6
Continuous
 62
     7
370
   211
100
AcDbMText
 10
3032.499490426257
 20
1300.00511209672
 30
0.0
 40
77.15249999999999
 41
202.5
 46
0.0
 71
     7
 72
     1
  1
{\fＭＳ ゴシック|b0|i0|c128|p49;15.1}
 73
     1
 44
1.0
  0
MTEXT
  5
33B
330
1F
100
AcDbEntity
  8
0-B
  6
Continuous
 62
     7
370
   211
100
AcDbMText
 10
2146.248822857766
 20
1200.00511209672
 30
0.0
 40
77.15249999999999
 41
202.5
 46
0.0
 71
     7
 72
     1
  1
{\fＭＳ ゴシック|b0|i0|c128|p49;29.2}
 73
     1
 44
1.0
  0
MTEXT
  5
33C
330
1F
100
AcDbEntity
  8
0-B
  6
Continuous
 62
     7
370
   211
100
AcDbMText
 10
2526.249323534427
 20
1200.00511209672
 30
0.0
 40
77.15249999999999
 41
202.5
 46
0.0
 71
     7
 72
     1
  1
{\fＭＳ ゴシック|b0|i0|c128|p49;29.2}
 73
     1
 44
1.0
  0
MTEXT
  5
33D
330
1F
100
AcDbEntity
  8
0-B
  6
Continuous
 62
     7
370
   211
100
AcDbMText
 10
1397.498822858945
 20
1151.078313399718
 30
0.0
 40
68.58
 41
45.0
 46
0.0
 71
     7
 72
     1
  1
{\fＭＳ ゴシック|b0|i0|c128|p49;3}
 11
6.123031769111886E-17
 21
1.0
 31
0.0
 73
     1
 44
1.0
  0
MTEXT
  5
33E
330
1F
100
AcDbEntity
  8
0-B
  6
Continuous
 62
     7
370
   211
100
AcDbMText
 10
2227.499490430966
 20
1093.21886209672
 30
0.0
 40
68.58
 41
45.0
 46
0.0
 71
     7
 72
     1
  1
{\fＭＳ ゴシック|b0|i0|c128|p49;6}
 11
6.123031769111886E-17
 21
1.0
 31
0.0
 73
     1
 44
1.0
  0
MTEXT
  5
33F
330
1F
100
AcDbEntity
  8
0-B
  6
Continuous
 62
     7
370
   211
100
AcDbMText
 10
1297.498822858944
 20
1024.82636209672
 30
0.0
 40
74.295
 41
97.5
 46
0.0
 71
     7
 72
     1
  1
{\fＭＳ ゴシック|b0|i0|c128|p49;15}
 11
6.123031769111886E-17
 21
1.0
 31
0.0
 73
     1
 44
1.0
  0
MTEXT
  5
340
330
1F
100
AcDbEntity
  8
0-B
  6
Continuous
 62
     7
370
   211
100
AcDbMText
 10
1397.498822858945
 20
1009.82593771165
 30
0.0
 40
74.295
 41
97.5
 46
0.0
 71
     7
 72
     1
  1
{\fＭＳ ゴシック|b0|i0|c128|p49;12}
 11
6.123031769111886E-17
 21
1.0
 31
0.0
 73
     1
 44
1.0
  0
MTEXT
  5
341
330
1F
100
AcDbEntity
  8
0-B
  6
Continuous
 62
     7
370
   211
100
AcDbMText
 10
1544.998822858944
 20
840.7188620967202
 30
0.0
 40
68.58
 41
45.0
 46
0.0
 71
     7
 72
     1
  1
{\fＭＳ ゴシック|b0|i0|c128|p49;4}
 73
     1
 44
1.0
  0
MTEXT
  5
342
330
1F
100
AcDbEntity
  8
0-B
  6
Continuous
 62
     7
370
   211
100
AcDbMText
 10
2202.499042201674
 20
844.5288620967202
 30
0.0
 40
76.19999999999999
 41
150.0
 46
0.0
 71
     7
 72
     1
  1
{\fＭＳ ゴシック|b0|i0|c128|p49;139}
 73
     1
 44
1.0
  0
MTEXT
  5
343
330
1F
100
AcDbEntity
  8
0-B
  6
Continuous
 62
     7
370
   211
100
AcDbMText
 10
2964.999414132306
 20
840.7188620967202
 30
0.0
 40
68.58
 41
45.0
 46
0.0
 71
     7
 72
     1
  1
{\fＭＳ ゴシック|b0|i0|c128|p49;4}
 73
     1
 44
1.0
  0
MTEXT
  5
344
330
1F
100
AcDbEntity
  8
0-B
  6
Continuous
 62
     7
370
   211
100
AcDbMText
 10
2202.499118495625
 20
744.5288620967199
 30
0.0
 40
76.19999999999999
 41
150.0
 46
0.0
 71
     7
 72
     1
  1
{\fＭＳ ゴシック|b0|i0|c128|p49;147}
 73
     1
 44
1.0
  0
LINE
  5
345
330
1F
100
AcDbEntity
  8
0-B
  6
Continuous
 62
   120
370
     5
100
AcDbLine
 10
1488.986526999582
 20
3439.885752227107
 30
0.0
 11
1588.986526999585
 21
3439.885752227107
 31
0.0
  0
LWPOLYLINE
  5
346
330
1F
100
AcDbEntity
  8
0-B
  6
Continuous
 62
     7
370
     9
100
AcDbPolyline
 90
        4
 70
     1
 43
3.0
 10
1490.486526999582
 20
3439.885752227107
 42
0.4142135623731
 10
1488.986526999582
 20
3441.385752227107
 42
0.4142135623731
 10
1487.486526999582
 20
3439.885752227107
 42
0.4142135623731
 10
1488.986526999582
 20
3438.385752227107
 42
0.4142135623731
  0
LWPOLYLINE
  5
347
330
1F
100
AcDbEntity
  8
0-B
  6
Continuous
 62
     7
370
     9
100
AcDbPolyline
 90
        4
 70
     1
 43
3.0
 10
1590.486526999585
 20
3439.885752227107
 42
0.4142135623731
 10
1588.986526999585
 20
3441.385752227107
 42
0.4142135623731
 10
1587.486526999585
 20
3439.885752227107
 42
0.4142135623731
 10
1588.986526999585
 20
3438.385752227107
 42
0.4142135623731
  0
LINE
  5
348
330
1F
100
AcDbEntity
  8
0-B
  6
Continuous
 62
   120
370
     5
100
AcDbLine
 10
1488.986526999582
 20
3439.885752227107
 30
0.0
 11
1488.986526999582
 21
3339.885752227106
 31
0.0
  0
LINE
  5
349
330
1F
100
AcDbEntity
  8
0-B
  6
Continuous
 62
   120
370
     5
100
AcDbLine
 10
1588.986526999585
 20
3439.885752227107
 30
0.0
 11
1588.986526999585
 21
3339.885752227106
 31
0.0
  0
LINE
  5
34A
330
1F
100
AcDbEntity
  8
0-4
  6
Continuous
 62
    92
370
    13
100
AcDbLine
 10
3348.986526999582
 20
3289.885752227107
 30
0.0
 11
1488.986526999582
 21
3289.885752227107
 31
0.0
  0
LINE
  5
34B
330
1F
100
AcDbEntity
  8
0-4
  6
Continuous
 62
    92
370
    13
100
AcDbLine
 10
1588.986526999585
 20
3239.885752227106
 30
0.0
 11
1588.986526999585
 21
3149.885752227106
 31
0.0
  0
LINE
  5
34C
330
1F
100
AcDbEntity
  8
0-B
  6
Continuous
 62
   120
370
     5
100
AcDbLine
 10
1338.986526999582
 20
3289.885752227107
 30
0.0
 11
1338.986526999582
 21
3239.885752227106
 31
0.0
  0
LWPOLYLINE
  5
34D
330
1F
100
AcDbEntity
  8
0-B
  6
Continuous
 62
     7
370
     9
100
AcDbPolyline
 90
        4
 70
     1
 43
3.0
 10
1340.486526999582
 20
3289.885752227107
 42
0.4142135623731
 10
1338.986526999582
 20
3291.385752227107
 42
0.4142135623731
 10
1337.486526999582
 20
3289.885752227107
 42
0.4142135623731
 10
1338.986526999582
 20
3288.385752227107
 42
0.4142135623731
  0
LWPOLYLINE
  5
34E
330
1F
100
AcDbEntity
  8
0-B
  6
Continuous
 62
     7
370
     9
100
AcDbPolyline
 90
        4
 70
     1
 43
3.0
 10
1340.486526999582
 20
3239.885752227106
 42
0.4142135623731
 10
1338.986526999582
 20
3241.385752227106
 42
0.4142135623731
 10
1337.486526999582
 20
3239.885752227106
 42
0.4142135623731
 10
1338.986526999582
 20
3238.385752227107
 42
0.4142135623731
  0
LINE
  5
34F
330
1F
100
AcDbEntity
  8
0-B
  6
Continuous
 62
   120
370
     5
100
AcDbLine
 10
1238.986526999583
 20
3289.885752227107
 30
0.0
 11
1438.986526999585
 21
3289.885752227107
 31
0.0
  0
LINE
  5
350
330
1F
100
AcDbEntity
  8
0-B
  6
Continuous
 62
   120
370
     5
100
AcDbLine
 10
1338.986526999582
 20
3239.885752227106
 30
0.0
 11
1438.986526999585
 21
3239.885752227106
 31
0.0
  0
LINE
  5
351
330
1F
100
AcDbEntity
  8
0-B
  6
Continuous
 62
   120
370
     5
100
AcDbLine
 10
1338.986526999582
 20
3239.885752227106
 30
0.0
 11
1338.986526999582
 21
3149.885752227106
 31
0.0
  0
LWPOLYLINE
  5
352
330
1F
100
AcDbEntity
  8
0-B
  6
Continuous
 62
     7
370
     9
100
AcDbPolyline
 90
        4
 70
     1
 43
3.0
 10
1340.486526999582
 20
3149.885752227106
 42
0.4142135623731
 10
1338.986526999582
 20
3151.385752227106
 42
0.4142135623731
 10
1337.486526999582
 20
3149.885752227106
 42
0.4142135623731
 10
1338.986526999582
 20
3148.385752227107
 42
0.4142135623731
  0
LINE
  5
353
330
1F
100
AcDbEntity
  8
0-B
  6
Continuous
 62
   120
370
     5
100
AcDbLine
 10
1338.986526999582
 20
3149.885752227106
 30
0.0
 11
1438.986526999585
 21
3149.885752227106
 31
0.0
  0
LINE
  5
354
330
1F
100
AcDbEntity
  8
0-B
  6
Continuous
 62
   120
370
     5
100
AcDbLine
 10
1338.986526999582
 20
3149.885752227106
 30
0.0
 11
1338.986526999582
 21
2989.885752227107
 31
0.0
  0
LWPOLYLINE
  5
355
330
1F
100
AcDbEntity
  8
0-B
  6
Continuous
 62
     7
370
     9
100
AcDbPolyline
 90
        4
 70
     1
 43
3.0
 10
1340.486526999582
 20
2989.885752227107
 42
0.4142135623731
 10
1338.986526999582
 20
2991.385752227107
 42
0.4142135623731
 10
1337.486526999582
 20
2989.885752227107
 42
0.4142135623731
 10
1338.986526999582
 20
2988.385752227107
 42
0.4142135623731
  0
LINE
  5
356
330
1F
100
AcDbEntity
  8
0-B
  6
Continuous
 62
   120
370
     5
100
AcDbLine
 10
1238.986526999583
 20
2989.885752227107
 30
0.0
 11
1438.986526999585
 21
2989.885752227107
 31
0.0
  0
LINE
  5
357
330
1F
100
AcDbEntity
  8
0-B
  6
Continuous
 62
   120
370
     5
100
AcDbLine
 10
1238.986526999583
 20
3289.885752227107
 30
0.0
 11
1238.986526999583
 21
2989.885752227107
 31
0.0
  0
LWPOLYLINE
  5
358
330
1F
100
AcDbEntity
  8
0-B
  6
Continuous
 62
     7
370
     9
100
AcDbPolyline
 90
        4
 70
     1
 43
3.0
 10
1240.486526999583
 20
3289.885752227107
 42
0.4142135623731
 10
1238.986526999583
 20
3291.385752227107
 42
0.4142135623731
 10
1237.486526999583
 20
3289.885752227107
 42
0.4142135623731
 10
1238.986526999583
 20
3288.385752227107
 42
0.4142135623731
  0
LWPOLYLINE
  5
359
330
1F
100
AcDbEntity
  8
0-B
  6
Continuous
 62
     7
370
     9
100
AcDbPolyline
 90
        4
 70
     1
 43
3.0
 10
1240.486526999583
 20
2989.885752227107
 42
0.4142135623731
 10
1238.986526999583
 20
2991.385752227107
 42
0.4142135623731
 10
1237.486526999583
 20
2989.885752227107
 42
0.4142135623731
 10
1238.986526999583
 20
2988.385752227107
 42
0.4142135623731
  0
LINE
  5
35A
330
1F
100
AcDbEntity
  8
0-0
  6
JWW_HOJO
 62
   120
370
     5
100
AcDbLine
 10
3403.986526999583
 20
3339.885752227106
 30
0.0
 11
1438.986526999585
 21
3339.885752227106
 31
0.0
  0
LINE
  5
35B
330
1F
100
AcDbEntity
  8
0-4
  6
Continuous
 62
    92
370
    13
100
AcDbLine
 10
1588.986526999585
 20
3239.885752227106
 30
0.0
 11
1488.986526999582
 21
3239.885752227106
 31
0.0
  0
LINE
  5
35C
330
1F
100
AcDbEntity
  8
0-4
  6
Continuous
 62
    92
370
    13
100
AcDbLine
 10
1488.986526999582
 20
3289.885752227107
 30
0.0
 11
1488.986526999582
 21
3239.885752227106
 31
0.0
  0
LINE
  5
35D
330
1F
100
AcDbEntity
  8
0-4
  6
Continuous
 62
    92
370
    13
100
AcDbLine
 10
1588.986526999585
 20
3149.885752227106
 30
0.0
 11
1488.986526999582
 21
3149.885752227106
 31
0.0
  0
LINE
  5
35E
330
1F
100
AcDbEntity
  8
0-4
  6
Continuous
 62
    92
370
    13
100
AcDbLine
 10
1488.986526999582
 20
3149.885752227106
 30
0.0
 11
1488.986526999582
 21
2989.885752227107
 31
0.0
  0
LINE
  5
35F
330
1F
100
AcDbEntity
  8
0-4
  6
Continuous
 62
    92
370
    13
100
AcDbLine
 10
3248.986526999583
 20
3239.885752227108
 30
0.0
 11
3248.986526999583
 21
3149.885752227106
 31
0.0
  0
LINE
  5
360
330
1F
100
AcDbEntity
  8
0-4
  6
Continuous
 62
    92
370
    13
100
AcDbLine
 10
3248.986526999583
 20
3239.885752227108
 30
0.0
 11
3348.986526999582
 21
3239.885752227108
 31
0.0
  0
LINE
  5
361
330
1F
100
AcDbEntity
  8
0-4
  6
Continuous
 62
    92
370
    13
100
AcDbLine
 10
3348.986526999582
 20
3239.885752227108
 30
0.0
 11
3348.986526999582
 21
3289.885752227107
 31
0.0
  0
LINE
  5
362
330
1F
100
AcDbEntity
  8
0-4
  6
Continuous
 62
    92
370
    13
100
AcDbLine
 10
3248.986526999583
 20
3149.885752227106
 30
0.0
 11
3348.986526999582
 21
3149.885752227106
 31
0.0
  0
LINE
  5
363
330
1F
100
AcDbEntity
  8
0-4
  6
Continuous
 62
    92
370
    13
100
AcDbLine
 10
3348.986526999582
 20
2989.885752227107
 30
0.0
 11
3348.986526999582
 21
3149.885752227106
 31
0.0
  0
LINE
  5
364
330
1F
100
AcDbEntity
  8
0-0
  6
JWW_HOJO
 62
   120
370
     5
100
AcDbLine
 10
3403.986526999583
 20
3339.885752227106
 30
0.0
 11
3403.986526999583
 21
2889.885752227107
 31
0.0
  0
LINE
  5
365
330
1F
100
AcDbEntity
  8
0-0
  6
JWW_HOJO
 62
   120
370
     5
100
AcDbLine
 10
3503.986526999584
 20
2689.885752227107
 30
0.0
 11
1238.986526999583
 21
2689.885752227107
 31
0.0
  0
LWPOLYLINE
  5
366
330
1F
100
AcDbEntity
  8
0-B
  6
Continuous
 62
     7
370
     9
100
AcDbPolyline
 90
        4
 70
     1
 43
3.0
 10
1490.486526999582
 20
2789.885752227108
 42
0.4142135623731
 10
1488.986526999582
 20
2791.385752227108
 42
0.4142135623731
 10
1487.486526999582
 20
2789.885752227108
 42
0.4142135623731
 10
1488.986526999582
 20
2788.385752227108
 42
0.4142135623731
  0
LWPOLYLINE
  5
367
330
1F
100
AcDbEntity
  8
0-B
  6
Continuous
 62
     7
370
     9
100
AcDbPolyline
 90
        4
 70
     1
 43
3.0
 10
3350.486526999582
 20
2789.885752227108
 42
0.4142135623731
 10
3348.986526999582
 20
2791.385752227108
 42
0.4142135623731
 10
3347.486526999582
 20
2789.885752227108
 42
0.4142135623731
 10
3348.986526999582
 20
2788.385752227108
 42
0.4142135623731
  0
LINE
  5
368
330
1F
100
AcDbEntity
  8
0-4
  6
Continuous
 62
    92
370
    13
100
AcDbLine
 10
2844.986526999587
 20
3149.885752227106
 30
0.0
 11
3132.986526999584
 21
3149.885752227106
 31
0.0
  0
LINE
  5
369
330
1F
100
AcDbEntity
  8
0-4
  6
Continuous
 62
    92
370
    13
100
AcDbLine
 10
2757.986526999584
 20
2994.885752227107
 30
0.0
 11
2757.986526999584
 21
3154.885752227107
 31
0.0
  0
LINE
  5
36A
330
1F
100
AcDbEntity
  8
0-4
  6
Continuous
 62
    92
370
    13
100
AcDbLine
 10
2757.986526999584
 20
2994.885752227107
 30
0.0
 11
2839.986526999584
 21
2994.885752227107
 31
0.0
  0
LINE
  5
36B
330
1F
100
AcDbEntity
  8
0-4
  6
Continuous
 62
    92
370
    13
100
AcDbLine
 10
2839.986526999584
 20
2994.885752227107
 30
0.0
 11
2839.986526999584
 21
3154.885752227107
 31
0.0
  0
LINE
  5
36C
330
1F
100
AcDbEntity
  8
0-4
  6
Continuous
 62
    92
370
    13
100
AcDbLine
 10
2839.986526999584
 20
3154.885752227107
 30
0.0
 11
3137.986526999586
 21
3154.885752227107
 31
0.0
  0
LINE
  5
36D
330
1F
100
AcDbEntity
  8
0-4
  6
Continuous
 62
    92
370
    13
100
AcDbLine
 10
3137.986526999586
 20
2994.885752227107
 30
0.0
 11
3137.986526999586
 21
3154.885752227107
 31
0.0
  0
LINE
  5
36E
330
1F
100
AcDbEntity
  8
0-4
  6
Continuous
 62
    92
370
    13
100
AcDbLine
 10
3157.986526999583
 20
2989.885752227107
 30
0.0
 11
3157.986526999583
 21
2994.885752227107
 31
0.0
  0
LINE
  5
36F
330
1F
100
AcDbEntity
  8
0-4
  6
Continuous
 62
    92
370
    13
100
AcDbLine
 10
3137.986526999586
 20
2994.885752227107
 30
0.0
 11
3157.986526999583
 21
2994.885752227107
 31
0.0
  0
LINE
  5
370
330
1F
100
AcDbEntity
  8
0-4
  6
Continuous
 62
    92
370
    13
100
AcDbLine
 10
2752.986526999583
 20
2989.885752227107
 30
0.0
 11
2752.986526999583
 21
3149.885752227106
 31
0.0
  0
LINE
  5
371
330
1F
100
AcDbEntity
  8
0-4
  6
Continuous
 62
    92
370
    13
100
AcDbLine
 10
2752.986526999583
 20
2989.885752227107
 30
0.0
 11
2844.986526999587
 21
2989.885752227107
 31
0.0
  0
LINE
  5
372
330
1F
100
AcDbEntity
  8
0-4
  6
Continuous
 62
    92
370
    13
100
AcDbLine
 10
2844.986526999587
 20
2989.885752227107
 30
0.0
 11
2844.986526999587
 21
3149.885752227106
 31
0.0
  0
LINE
  5
373
330
1F
100
AcDbEntity
  8
0-B
  6
Continuous
 62
   120
370
     5
100
AcDbLine
 10
2988.986526999585
 20
3149.885752227106
 30
0.0
 11
2988.986526999585
 21
2989.885752227107
 31
0.0
  0
LWPOLYLINE
  5
374
330
1F
100
AcDbEntity
  8
0-B
  6
Continuous
 62
     7
370
     9
100
AcDbPolyline
 90
        4
 70
     1
 43
3.0
 10
2990.486526999585
 20
3149.885752227106
 42
0.4142135623731
 10
2988.986526999585
 20
3151.385752227106
 42
0.4142135623731
 10
2987.486526999586
 20
3149.885752227106
 42
0.4142135623731
 10
2988.986526999585
 20
3148.385752227107
 42
0.4142135623731
  0
LWPOLYLINE
  5
375
330
1F
100
AcDbEntity
  8
0-B
  6
Continuous
 62
     7
370
     9
100
AcDbPolyline
 90
        4
 70
     1
 43
3.0
 10
2990.486526999585
 20
2989.885752227107
 42
0.4142135623731
 10
2988.986526999585
 20
2991.385752227107
 42
0.4142135623731
 10
2987.486526999586
 20
2989.885752227107
 42
0.4142135623731
 10
2988.986526999585
 20
2988.385752227107
 42
0.4142135623731
  0
LINE
  5
376
330
1F
100
AcDbEntity
  8
0-B
  6
Continuous
 62
   120
370
     5
100
AcDbLine
 10
2988.986526999585
 20
3149.885752227106
 30
0.0
 11
3042.986526999584
 21
3149.885752227106
 31
0.0
  0
LINE
  5
377
330
1F
100
AcDbEntity
  8
0-B
  6
Continuous
 62
   120
370
     5
100
AcDbLine
 10
2988.986526999585
 20
2989.885752227107
 30
0.0
 11
3042.986526999584
 21
2989.885752227107
 31
0.0
  0
LINE
  5
378
330
1F
100
AcDbEntity
  8
0-4
  6
Continuous
 62
    92
370
    13
100
AcDbLine
 10
2464.986526999584
 20
3149.885752227106
 30
0.0
 11
2752.986526999583
 21
3149.885752227106
 31
0.0
  0
LINE
  5
379
330
1F
100
AcDbEntity
  8
0-4
  6
Continuous
 62
    92
370
    13
100
AcDbLine
 10
2459.986526999584
 20
3154.885752227107
 30
0.0
 11
2757.986526999584
 21
3154.885752227107
 31
0.0
  0
LINE
  5
37A
330
1F
100
AcDbEntity
  8
0-4
  6
Continuous
 62
    92
370
    13
100
AcDbLine
 10
2084.986526999584
 20
3149.885752227106
 30
0.0
 11
2372.986526999586
 21
3149.885752227106
 31
0.0
  0
LINE
  5
37B
330
1F
100
AcDbEntity
  8
0-4
  6
Continuous
 62
    92
370
    13
100
AcDbLine
 10
2079.986526999587
 20
3154.885752227107
 30
0.0
 11
2079.986526999587
 21
2994.885752227107
 31
0.0
  0
LINE
  5
37C
330
1F
100
AcDbEntity
  8
0-4
  6
Continuous
 62
    92
370
    13
100
AcDbLine
 10
2079.986526999587
 20
3154.885752227107
 30
0.0
 11
2377.986526999583
 21
3154.885752227107
 31
0.0
  0
LINE
  5
37D
330
1F
100
AcDbEntity
  8
0-4
  6
Continuous
 62
    92
370
    13
100
AcDbLine
 10
2377.986526999583
 20
3154.885752227107
 30
0.0
 11
2377.986526999583
 21
2994.885752227107
 31
0.0
  0
LINE
  5
37E
330
1F
100
AcDbEntity
  8
0-4
  6
Continuous
 62
    92
370
    13
100
AcDbLine
 10
2377.986526999583
 20
2994.885752227107
 30
0.0
 11
2459.986526999584
 21
2994.885752227107
 31
0.0
  0
LINE
  5
37F
330
1F
100
AcDbEntity
  8
0-4
  6
Continuous
 62
    92
370
    13
100
AcDbLine
 10
2459.986526999584
 20
3154.885752227107
 30
0.0
 11
2459.986526999584
 21
2994.885752227107
 31
0.0
  0
LINE
  5
380
330
1F
100
AcDbEntity
  8
0-4
  6
Continuous
 62
    92
370
    13
100
AcDbLine
 10
2059.986526999584
 20
2994.885752227107
 30
0.0
 11
2079.986526999587
 21
2994.885752227107
 31
0.0
  0
LINE
  5
381
330
1F
100
AcDbEntity
  8
0-4
  6
Continuous
 62
    92
370
    13
100
AcDbLine
 10
2059.986526999584
 20
2994.885752227107
 30
0.0
 11
2059.986526999584
 21
2989.885752227107
 31
0.0
  0
LINE
  5
382
330
1F
100
AcDbEntity
  8
0-4
  6
Continuous
 62
    92
370
    13
100
AcDbLine
 10
2372.986526999586
 20
3149.885752227106
 30
0.0
 11
2372.986526999586
 21
2989.885752227107
 31
0.0
  0
LINE
  5
383
330
1F
100
AcDbEntity
  8
0-4
  6
Continuous
 62
    92
370
    13
100
AcDbLine
 10
2372.986526999586
 20
2989.885752227107
 30
0.0
 11
2464.986526999584
 21
2989.885752227107
 31
0.0
  0
LINE
  5
384
330
1F
100
AcDbEntity
  8
0-4
  6
Continuous
 62
    92
370
    13
100
AcDbLine
 10
2464.986526999584
 20
3149.885752227106
 30
0.0
 11
2464.986526999584
 21
2989.885752227107
 31
0.0
  0
LINE
  5
385
330
1F
100
AcDbEntity
  8
0-4
  6
Continuous
 62
    92
370
    13
100
AcDbLine
 10
1488.986526999582
 20
2989.885752227107
 30
0.0
 11
2084.986526999584
 21
2989.885752227107
 31
0.0
  0
LINE
  5
386
330
1F
100
AcDbEntity
  8
0-4
  6
Continuous
 62
    92
370
    13
100
AcDbLine
 10
2084.986526999584
 20
3149.885752227106
 30
0.0
 11
2084.986526999584
 21
2989.885752227107
 31
0.0
  0
LINE
  5
387
330
1F
100
AcDbEntity
  8
0-4
  6
Continuous
 62
    92
370
    13
100
AcDbLine
 10
3132.986526999584
 20
2989.885752227107
 30
0.0
 11
3132.986526999584
 21
3149.885752227106
 31
0.0
  0
LINE
  5
388
330
1F
100
AcDbEntity
  8
0-4
  6
Continuous
 62
    92
370
    13
100
AcDbLine
 10
3132.986526999584
 20
2989.885752227107
 30
0.0
 11
3348.986526999582
 21
2989.885752227107
 31
0.0
  0
LINE
  5
389
330
1F
100
AcDbEntity
  8
0-B
  6
Continuous
 62
   120
370
     5
100
AcDbLine
 10
1488.986526999582
 20
2789.885752227108
 30
0.0
 11
2084.986526999584
 21
2789.885752227108
 31
0.0
  0
LWPOLYLINE
  5
38A
330
1F
100
AcDbEntity
  8
0-B
  6
Continuous
 62
     7
370
     9
100
AcDbPolyline
 90
        4
 70
     1
 43
3.0
 10
2086.486526999584
 20
2789.885752227108
 42
0.4142135623731
 10
2084.986526999584
 20
2791.385752227108
 42
0.4142135623731
 10
2083.486526999584
 20
2789.885752227108
 42
0.4142135623731
 10
2084.986526999584
 20
2788.385752227108
 42
0.4142135623731
  0
LINE
  5
38B
330
1F
100
AcDbEntity
  8
0-B
  6
Continuous
 62
   120
370
     5
100
AcDbLine
 10
2084.986526999584
 20
2789.885752227108
 30
0.0
 11
2084.986526999584
 21
2889.885752227107
 31
0.0
  0
LINE
  5
38C
330
1F
100
AcDbEntity
  8
0-B
  6
Continuous
 62
   120
370
     5
100
AcDbLine
 10
2084.986526999584
 20
2789.885752227108
 30
0.0
 11
2372.986526999586
 21
2789.885752227108
 31
0.0
  0
LWPOLYLINE
  5
38D
330
1F
100
AcDbEntity
  8
0-B
  6
Continuous
 62
     7
370
     9
100
AcDbPolyline
 90
        4
 70
     1
 43
3.0
 10
2374.486526999586
 20
2789.885752227108
 42
0.4142135623731
 10
2372.986526999586
 20
2791.385752227108
 42
0.4142135623731
 10
2371.486526999587
 20
2789.885752227108
 42
0.4142135623731
 10
2372.986526999586
 20
2788.385752227108
 42
0.4142135623731
  0
LINE
  5
38E
330
1F
100
AcDbEntity
  8
0-B
  6
Continuous
 62
   120
370
     5
100
AcDbLine
 10
2372.986526999586
 20
2789.885752227108
 30
0.0
 11
2372.986526999586
 21
2889.885752227107
 31
0.0
  0
LINE
  5
38F
330
1F
100
AcDbEntity
  8
0-B
  6
Continuous
 62
   120
370
     5
100
AcDbLine
 10
2372.986526999586
 20
2789.885752227108
 30
0.0
 11
2464.986526999584
 21
2789.885752227108
 31
0.0
  0
LWPOLYLINE
  5
390
330
1F
100
AcDbEntity
  8
0-B
  6
Continuous
 62
     7
370
     9
100
AcDbPolyline
 90
        4
 70
     1
 43
3.0
 10
2466.486526999584
 20
2789.885752227108
 42
0.4142135623731
 10
2464.986526999584
 20
2791.385752227108
 42
0.4142135623731
 10
2463.486526999585
 20
2789.885752227108
 42
0.4142135623731
 10
2464.986526999584
 20
2788.385752227108
 42
0.4142135623731
  0
LINE
  5
391
330
1F
100
AcDbEntity
  8
0-B
  6
Continuous
 62
   120
370
     5
100
AcDbLine
 10
2464.986526999584
 20
2789.885752227108
 30
0.0
 11
2464.986526999584
 21
2889.885752227107
 31
0.0
  0
LINE
  5
392
330
1F
100
AcDbEntity
  8
0-B
  6
Continuous
 62
   120
370
     5
100
AcDbLine
 10
2464.986526999584
 20
2789.885752227108
 30
0.0
 11
2752.986526999583
 21
2789.885752227108
 31
0.0
  0
LWPOLYLINE
  5
393
330
1F
100
AcDbEntity
  8
0-B
  6
Continuous
 62
     7
370
     9
100
AcDbPolyline
 90
        4
 70
     1
 43
3.0
 10
2754.486526999583
 20
2789.885752227108
 42
0.4142135623731
 10
2752.986526999583
 20
2791.385752227108
 42
0.4142135623731
 10
2751.486526999583
 20
2789.885752227108
 42
0.4142135623731
 10
2752.986526999583
 20
2788.385752227108
 42
0.4142135623731
  0
LINE
  5
394
330
1F
100
AcDbEntity
  8
0-B
  6
Continuous
 62
   120
370
     5
100
AcDbLine
 10
2752.986526999583
 20
2789.885752227108
 30
0.0
 11
2752.986526999583
 21
2889.885752227107
 31
0.0
  0
LINE
  5
395
330
1F
100
AcDbEntity
  8
0-B
  6
Continuous
 62
   120
370
     5
100
AcDbLine
 10
2752.986526999583
 20
2789.885752227108
 30
0.0
 11
2844.986526999587
 21
2789.885752227108
 31
0.0
  0
LWPOLYLINE
  5
396
330
1F
100
AcDbEntity
  8
0-B
  6
Continuous
 62
     7
370
     9
100
AcDbPolyline
 90
        4
 70
     1
 43
3.0
 10
2846.486526999587
 20
2789.885752227108
 42
0.4142135623731
 10
2844.986526999587
 20
2791.385752227108
 42
0.4142135623731
 10
2843.486526999587
 20
2789.885752227108
 42
0.4142135623731
 10
2844.986526999587
 20
2788.385752227108
 42
0.4142135623731
  0
LINE
  5
397
330
1F
100
AcDbEntity
  8
0-B
  6
Continuous
 62
   120
370
     5
100
AcDbLine
 10
2844.986526999587
 20
2789.885752227108
 30
0.0
 11
2844.986526999587
 21
2889.885752227107
 31
0.0
  0
LINE
  5
398
330
1F
100
AcDbEntity
  8
0-B
  6
Continuous
 62
   120
370
     5
100
AcDbLine
 10
2844.986526999587
 20
2789.885752227108
 30
0.0
 11
3132.986526999584
 21
2789.885752227108
 31
0.0
  0
LWPOLYLINE
  5
399
330
1F
100
AcDbEntity
  8
0-B
  6
Continuous
 62
     7
370
     9
100
AcDbPolyline
 90
        4
 70
     1
 43
3.0
 10
3134.486526999584
 20
2789.885752227108
 42
0.4142135623731
 10
3132.986526999584
 20
2791.385752227108
 42
0.4142135623731
 10
3131.486526999584
 20
2789.885752227108
 42
0.4142135623731
 10
3132.986526999584
 20
2788.385752227108
 42
0.4142135623731
  0
LINE
  5
39A
330
1F
100
AcDbEntity
  8
0-B
  6
Continuous
 62
   120
370
     5
100
AcDbLine
 10
3132.986526999584
 20
2789.885752227108
 30
0.0
 11
3132.986526999584
 21
2889.885752227107
 31
0.0
  0
LINE
  5
39B
330
1F
100
AcDbEntity
  8
0-B
  6
Continuous
 62
   120
370
     5
100
AcDbLine
 10
3132.986526999584
 20
2789.885752227108
 30
0.0
 11
3348.986526999582
 21
2789.885752227108
 31
0.0
  0
MTEXT
  5
39C
330
1F
100
AcDbEntity
  8
0-B
  6
Continuous
 62
     7
370
   211
100
AcDbMText
 10
1490.236526999583
 20
3432.033252227107
 30
0.0
 40
74.295
 41
97.5
 46
0.0
 71
     7
 72
     1
  1
{\fＭＳ ゴシック|b0|i0|c128|p49;10}
 73
     1
 44
1.0
  0
MTEXT
  5
39D
330
1F
100
AcDbEntity
  8
0-B
  6
Continuous
 62
     7
370
   211
100
AcDbMText
 10
1338.986526999582
 20
3231.675752227106
 30
0.0
 40
68.58
 41
45.0
 46
0.0
 71
     7
 72
     1
  1
{\fＭＳ ゴシック|b0|i0|c128|p49;5}
 11
6.123031769111886E-17
 21
1.0
 31
0.0
 73
     1
 44
1.0
  0
MTEXT
  5
39E
330
1F
100
AcDbEntity
  8
0-B
  6
Continuous
 62
     7
370
   211
100
AcDbMText
 10
1338.986526999582
 20
3161.675752227106
 30
0.0
 40
68.58
 41
45.0
 46
0.0
 71
     7
 72
     1
  1
{\fＭＳ ゴシック|b0|i0|c128|p49;9}
 11
6.123031769111886E-17
 21
1.0
 31
0.0
 73
     1
 44
1.0
  0
MTEXT
  5
39F
330
1F
100
AcDbEntity
  8
0-B
  6
Continuous
 62
     7
370
   211
100
AcDbMText
 10
1238.986526999583
 20
3083.283252227107
 30
0.0
 40
74.295
 41
97.5
 46
0.0
 71
     7
 72
     1
  1
{\fＭＳ ゴシック|b0|i0|c128|p49;30}
 11
6.123031769111886E-17
 21
1.0
 31
0.0
 73
     1
 44
1.0
  0
MTEXT
  5
3A0
330
1F
100
AcDbEntity
  8
0-B
  6
Continuous
 62
     7
370
   211
100
AcDbMText
 10
1338.986526999582
 20
3013.283252227107
 30
0.0
 40
74.295
 41
97.5
 46
0.0
 71
     7
 72
     1
  1
{\fＭＳ ゴシック|b0|i0|c128|p49;16}
 11
6.123031769111886E-17
 21
1.0
 31
0.0
 73
     1
 44
1.0
  0
MTEXT
  5
3A1
330
1F
100
AcDbEntity
  8
0-B
  6
Continuous
 62
     7
370
   211
100
AcDbMText
 10
2988.986526999585
 20
3013.283252227107
 30
0.0
 40
74.295
 41
97.5
 46
0.0
 71
     7
 72
     1
  1
{\fＭＳ ゴシック|b0|i0|c128|p49;16}
 11
6.123031769111886E-17
 21
1.0
 31
0.0
 73
     1
 44
1.0
  0
MTEXT
  5
3A2
330
1F
100
AcDbEntity
  8
0-B
  6
Continuous
 62
     7
370
   211
100
AcDbMText
 10
1690.736526999583
 20
2783.462002227108
 30
0.0
 40
77.15249999999999
 41
202.5
 46
0.0
 71
     7
 72
     1
  1
{\fＭＳ ゴシック|b0|i0|c128|p49;59.6}
 73
     1
 44
1.0
  0
MTEXT
  5
3A3
330
1F
100
AcDbEntity
  8
0-B
  6
Continuous
 62
     7
370
   211
100
AcDbMText
 10
2153.986526999583
 20
2773.460752227108
 30
0.0
 40
57.15
 41
150.0
 46
0.0
 71
     7
 72
     1
  1
{\fＭＳ ゴシック|b0|i0|c128|p49;28.8}
 73
     1
 44
1.0
  0
MTEXT
  5
3A4
330
1F
100
AcDbEntity
  8
0-B
  6
Continuous
 62
     7
370
   211
100
AcDbMText
 10
2533.986526999583
 20
2773.460752227108
 30
0.0
 40
57.15
 41
150.0
 46
0.0
 71
     7
 72
     1
  1
{\fＭＳ ゴシック|b0|i0|c128|p49;28.8}
 73
     1
 44
1.0
  0
MTEXT
  5
3A5
330
1F
100
AcDbEntity
  8
0-B
  6
Continuous
 62
     7
370
   211
100
AcDbMText
 10
2913.986526999585
 20
2773.460752227108
 30
0.0
 40
57.15
 41
150.0
 46
0.0
 71
     7
 72
     1
  1
{\fＭＳ ゴシック|b0|i0|c128|p49;28.8}
 73
     1
 44
1.0
  0
MTEXT
  5
3A6
330
1F
100
AcDbEntity
  8
0-B
  6
Continuous
 62
     7
370
   211
100
AcDbMText
 10
3144.736526999583
 20
2783.462002227108
 30
0.0
 40
77.15249999999999
 41
202.5
 46
0.0
 71
     7
 72
     1
  1
{\fＭＳ ゴシック|b0|i0|c128|p49;21.6}
 73
     1
 44
1.0
  0
LINE
  5
3A7
330
1F
100
AcDbEntity
  8
0-B
  6
Continuous
 62
   120
370
     5
100
AcDbLine
 10
3348.986526999582
 20
3539.885752227108
 30
0.0
 11
1488.986526999582
 21
3539.885752227108
 31
0.0
  0
LWPOLYLINE
  5
3A8
330
1F
100
AcDbEntity
  8
0-B
  6
Continuous
 62
     7
370
     9
100
AcDbPolyline
 90
        4
 70
     1
 43
3.0
 10
3350.486526999582
 20
3539.885752227108
 42
0.4142135623731
 10
3348.986526999582
 20
3541.385752227108
 42
0.4142135623731
 10
3347.486526999582
 20
3539.885752227108
 42
0.4142135623731
 10
3348.986526999582
 20
3538.385752227108
 42
0.4142135623731
  0
LWPOLYLINE
  5
3A9
330
1F
100
AcDbEntity
  8
0-B
  6
Continuous
 62
     7
370
     9
100
AcDbPolyline
 90
        4
 70
     1
 43
3.0
 10
1490.486526999582
 20
3539.885752227108
 42
0.4142135623731
 10
1488.986526999582
 20
3541.385752227108
 42
0.4142135623731
 10
1487.486526999582
 20
3539.885752227108
 42
0.4142135623731
 10
1488.986526999582
 20
3538.385752227108
 42
0.4142135623731
  0
LINE
  5
3AA
330
1F
100
AcDbEntity
  8
0-B
  6
Continuous
 62
   120
370
     5
100
AcDbLine
 10
3348.986526999582
 20
3539.885752227108
 30
0.0
 11
3348.986526999582
 21
3439.885752227107
 31
0.0
  0
LINE
  5
3AB
330
1F
100
AcDbEntity
  8
0-B
  6
Continuous
 62
   120
370
     5
100
AcDbLine
 10
1488.986526999582
 20
3539.885752227108
 30
0.0
 11
1488.986526999582
 21
3439.885752227107
 31
0.0
  0
MTEXT
  5
3AC
330
1F
100
AcDbEntity
  8
0-B
  6
Continuous
 62
     7
370
   211
100
AcDbMText
 10
2343.986526999582
 20
3547.985752227108
 30
0.0
 40
76.19999999999999
 41
150.0
 46
0.0
 71
     7
 72
     1
  1
{\fＭＳ ゴシック|b0|i0|c128|p49;186}
 73
     1
 44
1.0
  0
LINE
  5
3AD
330
1F
100
AcDbEntity
  8
0-B
  6
Continuous
 62
   120
370
     5
100
AcDbLine
 10
1488.986526999582
 20
2789.885752227108
 30
0.0
 11
1488.986526999582
 21
2889.885752227107
 31
0.0
  0
LINE
  5
3AE
330
1F
100
AcDbEntity
  8
0-B
  6
Continuous
 62
   120
370
     5
100
AcDbLine
 10
3348.986526999582
 20
2789.885752227108
 30
0.0
 11
3348.986526999582
 21
2889.885752227107
 31
0.0
  0
MTEXT
  5
3AF
330
1F
100
AcDbEntity
  8
0-B
  6
Continuous
 62
     7
370
   211
100
AcDbMText
 10
2343.986526999585
 20
2682.985752227107
 30
0.0
 40
76.19999999999999
 41
150.0
 46
0.0
 71
     7
 72
     1
  1
{\fＭＳ ゴシック|b0|i0|c128|p49;9.2}
 73
     1
 44
1.0
  0
MTEXT
  5
3B0
330
1F
100
AcDbEntity
  8
0-B
  6
Continuous
 62
     7
370
   211
100
AcDbMText
 10
2723.986526999583
 20
2682.985752227107
 30
0.0
 40
76.19999999999999
 41
150.0
 46
0.0
 71
     7
 72
     1
  1
{\fＭＳ ゴシック|b0|i0|c128|p49;9.2}
 73
     1
 44
1.0
  0
LINE
  5
3B1
330
1F
100
AcDbEntity
  8
0-4
  6
Continuous
 62
    92
370
    13
100
AcDbLine
 10
3187.4991566426
 20
1945.714622040971
 30
0.0
 11
3187.4991566426
 21
2245.714622040971
 31
0.0
  0
LINE
  5
3B2
330
1F
100
AcDbEntity
  8
0-4
  6
Continuous
 62
    92
370
    13
100
AcDbLine
 10
3187.4991566426
 20
2245.714622040971
 30
0.0
 11
1417.4991566426
 21
2245.714622040971
 31
0.0
  0
LINE
  5
3B3
330
1F
100
AcDbEntity
  8
0-4
  6
Continuous
 62
    92
370
    13
100
AcDbLine
 10
1417.4991566426
 20
2245.714622040971
 30
0.0
 11
1417.4991566426
 21
1945.714622040971
 31
0.0
  0
LINE
  5
3B4
330
1F
100
AcDbEntity
  8
0-4
  6
Continuous
 62
    92
370
    13
100
AcDbLine
 10
2748.4991566426
 20
2105.71462204097
 30
0.0
 11
3036.499156642601
 21
2105.71462204097
 31
0.0
  0
LINE
  5
3B5
330
1F
100
AcDbEntity
  8
0-4
  6
Continuous
 62
    92
370
    13
100
AcDbLine
 10
2661.499156642601
 20
1950.714622040971
 30
0.0
 11
2661.499156642601
 21
2110.714622040971
 31
0.0
  0
LINE
  5
3B6
330
1F
100
AcDbEntity
  8
0-4
  6
Continuous
 62
    92
370
    13
100
AcDbLine
 10
2661.499156642601
 20
1950.714622040971
 30
0.0
 11
2743.499156642601
 21
1950.714622040971
 31
0.0
  0
LINE
  5
3B7
330
1F
100
AcDbEntity
  8
0-4
  6
Continuous
 62
    92
370
    13
100
AcDbLine
 10
2743.499156642601
 20
1950.714622040971
 30
0.0
 11
2743.499156642601
 21
2110.714622040971
 31
0.0
  0
LINE
  5
3B8
330
1F
100
AcDbEntity
  8
0-4
  6
Continuous
 62
    92
370
    13
100
AcDbLine
 10
2743.499156642601
 20
2110.714622040971
 30
0.0
 11
3041.4991566426
 21
2110.714622040971
 31
0.0
  0
LINE
  5
3B9
330
1F
100
AcDbEntity
  8
0-4
  6
Continuous
 62
    92
370
    13
100
AcDbLine
 10
3041.4991566426
 20
1950.714622040971
 30
0.0
 11
3041.4991566426
 21
2110.714622040971
 31
0.0
  0
LINE
  5
3BA
330
1F
100
AcDbEntity
  8
0-4
  6
Continuous
 62
    92
370
    13
100
AcDbLine
 10
3061.4991566426
 20
1945.714622040971
 30
0.0
 11
3061.4991566426
 21
1950.714622040971
 31
0.0
  0
LINE
  5
3BB
330
1F
100
AcDbEntity
  8
0-4
  6
Continuous
 62
    92
370
    13
100
AcDbLine
 10
3041.4991566426
 20
1950.714622040971
 30
0.0
 11
3061.4991566426
 21
1950.714622040971
 31
0.0
  0
LINE
  5
3BC
330
1F
100
AcDbEntity
  8
0-4
  6
Continuous
 62
    92
370
    13
100
AcDbLine
 10
2656.4991566426
 20
1945.714622040971
 30
0.0
 11
2656.4991566426
 21
2105.71462204097
 31
0.0
  0
LINE
  5
3BD
330
1F
100
AcDbEntity
  8
0-4
  6
Continuous
 62
    92
370
    13
100
AcDbLine
 10
2656.4991566426
 20
1945.714622040971
 30
0.0
 11
2748.4991566426
 21
1945.714622040971
 31
0.0
  0
LINE
  5
3BE
330
1F
100
AcDbEntity
  8
0-4
  6
Continuous
 62
    92
370
    13
100
AcDbLine
 10
2748.4991566426
 20
1945.714622040971
 30
0.0
 11
2748.4991566426
 21
2105.71462204097
 31
0.0
  0
LINE
  5
3BF
330
1F
100
AcDbEntity
  8
0-B
  6
Continuous
 62
   120
370
     5
100
AcDbLine
 10
2892.499156642602
 20
2105.71462204097
 30
0.0
 11
2892.499156642602
 21
1945.714622040971
 31
0.0
  0
LWPOLYLINE
  5
3C0
330
1F
100
AcDbEntity
  8
0-B
  6
Continuous
 62
     7
370
     9
100
AcDbPolyline
 90
        4
 70
     1
 43
3.0
 10
2893.999156642602
 20
2105.71462204097
 42
0.4142135623731
 10
2892.499156642602
 20
2107.21462204097
 42
0.4142135623731
 10
2890.999156642602
 20
2105.71462204097
 42
0.4142135623731
 10
2892.499156642602
 20
2104.214622040971
 42
0.4142135623731
  0
LWPOLYLINE
  5
3C1
330
1F
100
AcDbEntity
  8
0-B
  6
Continuous
 62
     7
370
     9
100
AcDbPolyline
 90
        4
 70
     1
 43
3.0
 10
2893.999156642602
 20
1945.714622040971
 42
0.4142135623731
 10
2892.499156642602
 20
1947.214622040971
 42
0.4142135623731
 10
2890.999156642602
 20
1945.714622040971
 42
0.4142135623731
 10
2892.499156642602
 20
1944.214622040971
 42
0.4142135623731
  0
LINE
  5
3C2
330
1F
100
AcDbEntity
  8
0-B
  6
Continuous
 62
   120
370
     5
100
AcDbLine
 10
2892.499156642602
 20
2105.71462204097
 30
0.0
 11
2946.499156642601
 21
2105.71462204097
 31
0.0
  0
LINE
  5
3C3
330
1F
100
AcDbEntity
  8
0-B
  6
Continuous
 62
   120
370
     5
100
AcDbLine
 10
2892.499156642602
 20
1945.714622040971
 30
0.0
 11
2946.499156642601
 21
1945.714622040971
 31
0.0
  0
LINE
  5
3C4
330
1F
100
AcDbEntity
  8
0-4
  6
Continuous
 62
    92
370
    13
100
AcDbLine
 10
2368.499156642601
 20
2105.71462204097
 30
0.0
 11
2656.4991566426
 21
2105.71462204097
 31
0.0
  0
LINE
  5
3C5
330
1F
100
AcDbEntity
  8
0-4
  6
Continuous
 62
    92
370
    13
100
AcDbLine
 10
2363.499156642601
 20
2110.714622040971
 30
0.0
 11
2661.499156642601
 21
2110.714622040971
 31
0.0
  0
LINE
  5
3C6
330
1F
100
AcDbEntity
  8
0-4
  6
Continuous
 62
    92
370
    13
100
AcDbLine
 10
1988.499156642601
 20
2105.71462204097
 30
0.0
 11
2276.4991566426
 21
2105.71462204097
 31
0.0
  0
LINE
  5
3C7
330
1F
100
AcDbEntity
  8
0-4
  6
Continuous
 62
    92
370
    13
100
AcDbLine
 10
1983.499156642604
 20
2110.714622040971
 30
0.0
 11
1983.499156642604
 21
1950.714622040971
 31
0.0
  0
LINE
  5
3C8
330
1F
100
AcDbEntity
  8
0-4
  6
Continuous
 62
    92
370
    13
100
AcDbLine
 10
1983.499156642604
 20
2110.714622040971
 30
0.0
 11
2281.4991566426
 21
2110.714622040971
 31
0.0
  0
LINE
  5
3C9
330
1F
100
AcDbEntity
  8
0-4
  6
Continuous
 62
    92
370
    13
100
AcDbLine
 10
2281.4991566426
 20
2110.714622040971
 30
0.0
 11
2281.4991566426
 21
1950.714622040971
 31
0.0
  0
LINE
  5
3CA
330
1F
100
AcDbEntity
  8
0-4
  6
Continuous
 62
    92
370
    13
100
AcDbLine
 10
2281.4991566426
 20
1950.714622040971
 30
0.0
 11
2363.499156642601
 21
1950.714622040971
 31
0.0
  0
LINE
  5
3CB
330
1F
100
AcDbEntity
  8
0-4
  6
Continuous
 62
    92
370
    13
100
AcDbLine
 10
2363.499156642601
 20
2110.714622040971
 30
0.0
 11
2363.499156642601
 21
1950.714622040971
 31
0.0
  0
LINE
  5
3CC
330
1F
100
AcDbEntity
  8
0-4
  6
Continuous
 62
    92
370
    13
100
AcDbLine
 10
1963.499156642601
 20
1950.714622040971
 30
0.0
 11
1983.499156642604
 21
1950.714622040971
 31
0.0
  0
LINE
  5
3CD
330
1F
100
AcDbEntity
  8
0-4
  6
Continuous
 62
    92
370
    13
100
AcDbLine
 10
1963.499156642601
 20
1950.714622040971
 30
0.0
 11
1963.499156642601
 21
1945.714622040971
 31
0.0
  0
LINE
  5
3CE
330
1F
100
AcDbEntity
  8
0-4
  6
Continuous
 62
    92
370
    13
100
AcDbLine
 10
2276.4991566426
 20
2105.71462204097
 30
0.0
 11
2276.4991566426
 21
1945.714622040971
 31
0.0
  0
LINE
  5
3CF
330
1F
100
AcDbEntity
  8
0-4
  6
Continuous
 62
    92
370
    13
100
AcDbLine
 10
2276.4991566426
 20
1945.714622040971
 30
0.0
 11
2368.499156642601
 21
1945.714622040971
 31
0.0
  0
LINE
  5
3D0
330
1F
100
AcDbEntity
  8
0-4
  6
Continuous
 62
    92
370
    13
100
AcDbLine
 10
2368.499156642601
 20
2105.71462204097
 30
0.0
 11
2368.499156642601
 21
1945.714622040971
 31
0.0
  0
LINE
  5
3D1
330
1F
100
AcDbEntity
  8
0-4
  6
Continuous
 62
    92
370
    13
100
AcDbLine
 10
3036.499156642601
 20
1945.714622040971
 30
0.0
 11
3187.4991566426
 21
1945.714622040971
 31
0.0
  0
LINE
  5
3D2
330
1F
100
AcDbEntity
  8
0-4
  6
Continuous
 62
    92
370
    13
100
AcDbLine
 10
3036.499156642601
 20
1945.714622040971
 30
0.0
 11
3036.499156642601
 21
2105.71462204097
 31
0.0
  0
LINE
  5
3D3
330
1F
100
AcDbEntity
  8
0-4
  6
Continuous
 62
    92
370
    13
100
AcDbLine
 10
1417.4991566426
 20
1945.714622040971
 30
0.0
 11
1988.499156642601
 21
1945.714622040971
 31
0.0
  0
LINE
  5
3D4
330
1F
100
AcDbEntity
  8
0-4
  6
Continuous
 62
    92
370
    13
100
AcDbLine
 10
1988.499156642601
 20
2105.71462204097
 30
0.0
 11
1988.499156642601
 21
1945.714622040971
 31
0.0
  0
LINE
  5
3D5
330
1F
100
AcDbEntity
  8
0-B
  6
Continuous
 62
   120
370
     5
100
AcDbLine
 10
1267.4991566426
 20
2245.714622040971
 30
0.0
 11
1267.4991566426
 21
1945.714622040971
 31
0.0
  0
LWPOLYLINE
  5
3D6
330
1F
100
AcDbEntity
  8
0-B
  6
Continuous
 62
     7
370
     9
100
AcDbPolyline
 90
        4
 70
     1
 43
3.0
 10
1268.9991566426
 20
2245.714622040971
 42
0.4142135623731
 10
1267.4991566426
 20
2247.214622040971
 42
0.4142135623731
 10
1265.9991566426
 20
2245.714622040971
 42
0.4142135623731
 10
1267.4991566426
 20
2244.214622040971
 42
0.4142135623731
  0
LWPOLYLINE
  5
3D7
330
1F
100
AcDbEntity
  8
0-B
  6
Continuous
 62
     7
370
     9
100
AcDbPolyline
 90
        4
 70
     1
 43
3.0
 10
1268.9991566426
 20
1945.714622040971
 42
0.4142135623731
 10
1267.4991566426
 20
1947.214622040971
 42
0.4142135623731
 10
1265.9991566426
 20
1945.714622040971
 42
0.4142135623731
 10
1267.4991566426
 20
1944.214622040971
 42
0.4142135623731
  0
LINE
  5
3D8
330
1F
100
AcDbEntity
  8
0-B
  6
Continuous
 62
   120
370
     5
100
AcDbLine
 10
1267.4991566426
 20
2245.714622040971
 30
0.0
 11
1367.499156642601
 21
2245.714622040971
 31
0.0
  0
LINE
  5
3D9
330
1F
100
AcDbEntity
  8
0-B
  6
Continuous
 62
   120
370
     5
100
AcDbLine
 10
1267.4991566426
 20
1945.714622040971
 30
0.0
 11
1367.499156642601
 21
1945.714622040971
 31
0.0
  0
LINE
  5
3DA
330
1F
100
AcDbEntity
  8
0-B
  6
Continuous
 62
   120
370
     5
100
AcDbLine
 10
1417.4991566426
 20
1745.714622040972
 30
0.0
 11
1988.499156642601
 21
1745.714622040972
 31
0.0
  0
LWPOLYLINE
  5
3DB
330
1F
100
AcDbEntity
  8
0-B
  6
Continuous
 62
     7
370
     9
100
AcDbPolyline
 90
        4
 70
     1
 43
3.0
 10
1418.9991566426
 20
1745.714622040972
 42
0.4142135623731
 10
1417.4991566426
 20
1747.214622040972
 42
0.4142135623731
 10
1415.9991566426
 20
1745.714622040972
 42
0.4142135623731
 10
1417.4991566426
 20
1744.214622040972
 42
0.4142135623731
  0
LWPOLYLINE
  5
3DC
330
1F
100
AcDbEntity
  8
0-B
  6
Continuous
 62
     7
370
     9
100
AcDbPolyline
 90
        4
 70
     1
 43
3.0
 10
1989.999156642601
 20
1745.714622040972
 42
0.4142135623731
 10
1988.499156642601
 20
1747.214622040972
 42
0.4142135623731
 10
1986.999156642601
 20
1745.714622040972
 42
0.4142135623731
 10
1988.499156642601
 20
1744.214622040972
 42
0.4142135623731
  0
LINE
  5
3DD
330
1F
100
AcDbEntity
  8
0-B
  6
Continuous
 62
   120
370
     5
100
AcDbLine
 10
1988.499156642601
 20
1745.714622040972
 30
0.0
 11
1988.499156642601
 21
1845.714622040971
 31
0.0
  0
LINE
  5
3DE
330
1F
100
AcDbEntity
  8
0-B
  6
Continuous
 62
   120
370
     5
100
AcDbLine
 10
1988.499156642601
 20
1745.714622040972
 30
0.0
 11
2276.4991566426
 21
1745.714622040972
 31
0.0
  0
LWPOLYLINE
  5
3DF
330
1F
100
AcDbEntity
  8
0-B
  6
Continuous
 62
     7
370
     9
100
AcDbPolyline
 90
        4
 70
     1
 43
3.0
 10
2277.9991566426
 20
1745.714622040972
 42
0.4142135623731
 10
2276.4991566426
 20
1747.214622040972
 42
0.4142135623731
 10
2274.9991566426
 20
1745.714622040972
 42
0.4142135623731
 10
2276.4991566426
 20
1744.214622040972
 42
0.4142135623731
  0
LINE
  5
3E0
330
1F
100
AcDbEntity
  8
0-B
  6
Continuous
 62
   120
370
     5
100
AcDbLine
 10
2276.4991566426
 20
1745.714622040972
 30
0.0
 11
2276.4991566426
 21
1845.714622040971
 31
0.0
  0
LINE
  5
3E1
330
1F
100
AcDbEntity
  8
0-B
  6
Continuous
 62
   120
370
     5
100
AcDbLine
 10
2276.4991566426
 20
1745.714622040972
 30
0.0
 11
2368.499156642601
 21
1745.714622040972
 31
0.0
  0
LWPOLYLINE
  5
3E2
330
1F
100
AcDbEntity
  8
0-B
  6
Continuous
 62
     7
370
     9
100
AcDbPolyline
 90
        4
 70
     1
 43
3.0
 10
2369.999156642601
 20
1745.714622040972
 42
0.4142135623731
 10
2368.499156642601
 20
1747.214622040972
 42
0.4142135623731
 10
2366.999156642602
 20
1745.714622040972
 42
0.4142135623731
 10
2368.499156642601
 20
1744.214622040972
 42
0.4142135623731
  0
LINE
  5
3E3
330
1F
100
AcDbEntity
  8
0-B
  6
Continuous
 62
   120
370
     5
100
AcDbLine
 10
2368.499156642601
 20
1745.714622040972
 30
0.0
 11
2368.499156642601
 21
1845.714622040971
 31
0.0
  0
LINE
  5
3E4
330
1F
100
AcDbEntity
  8
0-B
  6
Continuous
 62
   120
370
     5
100
AcDbLine
 10
2368.499156642601
 20
1745.714622040972
 30
0.0
 11
2656.4991566426
 21
1745.714622040972
 31
0.0
  0
LWPOLYLINE
  5
3E5
330
1F
100
AcDbEntity
  8
0-B
  6
Continuous
 62
     7
370
     9
100
AcDbPolyline
 90
        4
 70
     1
 43
3.0
 10
2657.9991566426
 20
1745.714622040972
 42
0.4142135623731
 10
2656.4991566426
 20
1747.214622040972
 42
0.4142135623731
 10
2654.9991566426
 20
1745.714622040972
 42
0.4142135623731
 10
2656.4991566426
 20
1744.214622040972
 42
0.4142135623731
  0
LINE
  5
3E6
330
1F
100
AcDbEntity
  8
0-B
  6
Continuous
 62
   120
370
     5
100
AcDbLine
 10
2656.4991566426
 20
1745.714622040972
 30
0.0
 11
2656.4991566426
 21
1845.714622040971
 31
0.0
  0
LINE
  5
3E7
330
1F
100
AcDbEntity
  8
0-B
  6
Continuous
 62
   120
370
     5
100
AcDbLine
 10
2656.4991566426
 20
1745.714622040972
 30
0.0
 11
2748.4991566426
 21
1745.714622040972
 31
0.0
  0
LWPOLYLINE
  5
3E8
330
1F
100
AcDbEntity
  8
0-B
  6
Continuous
 62
     7
370
     9
100
AcDbPolyline
 90
        4
 70
     1
 43
3.0
 10
2749.9991566426
 20
1745.714622040972
 42
0.4142135623731
 10
2748.4991566426
 20
1747.214622040972
 42
0.4142135623731
 10
2746.9991566426
 20
1745.714622040972
 42
0.4142135623731
 10
2748.4991566426
 20
1744.214622040972
 42
0.4142135623731
  0
LINE
  5
3E9
330
1F
100
AcDbEntity
  8
0-B
  6
Continuous
 62
   120
370
     5
100
AcDbLine
 10
2748.4991566426
 20
1745.714622040972
 30
0.0
 11
2748.4991566426
 21
1845.714622040971
 31
0.0
  0
LINE
  5
3EA
330
1F
100
AcDbEntity
  8
0-B
  6
Continuous
 62
   120
370
     5
100
AcDbLine
 10
2748.4991566426
 20
1745.714622040972
 30
0.0
 11
3036.499156642601
 21
1745.714622040972
 31
0.0
  0
LWPOLYLINE
  5
3EB
330
1F
100
AcDbEntity
  8
0-B
  6
Continuous
 62
     7
370
     9
100
AcDbPolyline
 90
        4
 70
     1
 43
3.0
 10
3037.999156642601
 20
1745.714622040972
 42
0.4142135623731
 10
3036.499156642601
 20
1747.214622040972
 42
0.4142135623731
 10
3034.999156642601
 20
1745.714622040972
 42
0.4142135623731
 10
3036.499156642601
 20
1744.214622040972
 42
0.4142135623731
  0
LINE
  5
3EC
330
1F
100
AcDbEntity
  8
0-B
  6
Continuous
 62
   120
370
     5
100
AcDbLine
 10
3036.499156642601
 20
1745.714622040972
 30
0.0
 11
3036.499156642601
 21
1845.714622040971
 31
0.0
  0
LINE
  5
3ED
330
1F
100
AcDbEntity
  8
0-B
  6
Continuous
 62
   120
370
     5
100
AcDbLine
 10
3036.499156642601
 20
1745.714622040972
 30
0.0
 11
3187.4991566426
 21
1745.714622040972
 31
0.0
  0
LWPOLYLINE
  5
3EE
330
1F
100
AcDbEntity
  8
0-B
  6
Continuous
 62
     7
370
     9
100
AcDbPolyline
 90
        4
 70
     1
 43
3.0
 10
3188.9991566426
 20
1745.714622040972
 42
0.4142135623731
 10
3187.4991566426
 20
1747.214622040972
 42
0.4142135623731
 10
3185.9991566426
 20
1745.714622040972
 42
0.4142135623731
 10
3187.4991566426
 20
1744.214622040972
 42
0.4142135623731
  0
MTEXT
  5
3EF
330
1F
100
AcDbEntity
  8
0-B
  6
Continuous
 62
     7
370
   211
100
AcDbMText
 10
1267.4991566426
 20
2039.112122040971
 30
0.0
 40
74.295
 41
97.5
 46
0.0
 71
     7
 72
     1
  1
{\fＭＳ ゴシック|b0|i0|c128|p49;30}
 11
6.123031769111886E-17
 21
1.0
 31
0.0
 73
     1
 44
1.0
  0
MTEXT
  5
3F0
330
1F
100
AcDbEntity
  8
0-B
  6
Continuous
 62
     7
370
   211
100
AcDbMText
 10
2892.499156642602
 20
1969.112122040971
 30
0.0
 40
74.295
 41
97.5
 46
0.0
 71
     7
 72
     1
  1
{\fＭＳ ゴシック|b0|i0|c128|p49;16}
 11
6.123031769111886E-17
 21
1.0
 31
0.0
 73
     1
 44
1.0
  0
MTEXT
  5
3F1
330
1F
100
AcDbEntity
  8
0-B
  6
Continuous
 62
     7
370
   211
100
AcDbMText
 10
1601.749156642601
 20
1739.290872040972
 30
0.0
 40
77.15249999999999
 41
202.5
 46
0.0
 71
     7
 72
     1
  1
{\fＭＳ ゴシック|b0|i0|c128|p49;57.1}
 73
     1
 44
1.0
  0
MTEXT
  5
3F2
330
1F
100
AcDbEntity
  8
0-B
  6
Continuous
 62
     7
370
   211
100
AcDbMText
 10
2057.499156642601
 20
1729.289622040972
 30
0.0
 40
57.15
 41
150.0
 46
0.0
 71
     7
 72
     1
  1
{\fＭＳ ゴシック|b0|i0|c128|p49;28.8}
 73
     1
 44
1.0
  0
MTEXT
  5
3F3
330
1F
100
AcDbEntity
  8
0-B
  6
Continuous
 62
     7
370
   211
100
AcDbMText
 10
2437.4991566426
 20
1729.289622040972
 30
0.0
 40
57.15
 41
150.0
 46
0.0
 71
     7
 72
     1
  1
{\fＭＳ ゴシック|b0|i0|c128|p49;28.8}
 73
     1
 44
1.0
  0
MTEXT
  5
3F4
330
1F
100
AcDbEntity
  8
0-B
  6
Continuous
 62
     7
370
   211
100
AcDbMText
 10
2817.499156642602
 20
1729.289622040972
 30
0.0
 40
57.15
 41
150.0
 46
0.0
 71
     7
 72
     1
  1
{\fＭＳ ゴシック|b0|i0|c128|p49;28.8}
 73
     1
 44
1.0
  0
LINE
  5
3F5
330
1F
100
AcDbEntity
  8
0-B
  6
Continuous
 62
   120
370
     5
100
AcDbLine
 10
1417.4991566426
 20
2395.714622040972
 30
0.0
 11
3187.4991566426
 21
2395.714622040972
 31
0.0
  0
LWPOLYLINE
  5
3F6
330
1F
100
AcDbEntity
  8
0-B
  6
Continuous
 62
     7
370
     9
100
AcDbPolyline
 90
        4
 70
     1
 43
3.0
 10
1418.9991566426
 20
2395.714622040972
 42
0.4142135623731
 10
1417.4991566426
 20
2397.214622040972
 42
0.4142135623731
 10
1415.9991566426
 20
2395.714622040972
 42
0.4142135623731
 10
1417.4991566426
 20
2394.214622040972
 42
0.4142135623731
  0
LWPOLYLINE
  5
3F7
330
1F
100
AcDbEntity
  8
0-B
  6
Continuous
 62
     7
370
     9
100
AcDbPolyline
 90
        4
 70
     1
 43
3.0
 10
3188.9991566426
 20
2395.714622040972
 42
0.4142135623731
 10
3187.4991566426
 20
2397.214622040972
 42
0.4142135623731
 10
3185.9991566426
 20
2395.714622040972
 42
0.4142135623731
 10
3187.4991566426
 20
2394.214622040972
 42
0.4142135623731
  0
LINE
  5
3F8
330
1F
100
AcDbEntity
  8
0-B
  6
Continuous
 62
   120
370
     5
100
AcDbLine
 10
1417.4991566426
 20
2395.714622040972
 30
0.0
 11
1417.4991566426
 21
2295.714622040971
 31
0.0
  0
LINE
  5
3F9
330
1F
100
AcDbEntity
  8
0-B
  6
Continuous
 62
   120
370
     5
100
AcDbLine
 10
3187.4991566426
 20
2395.714622040972
 30
0.0
 11
3187.4991566426
 21
2295.714622040971
 31
0.0
  0
MTEXT
  5
3FA
330
1F
100
AcDbEntity
  8
0-B
  6
Continuous
 62
     7
370
   211
100
AcDbMText
 10
2227.4991566426
 20
2403.814622040972
 30
0.0
 40
76.19999999999999
 41
150.0
 46
0.0
 71
     7
 72
     1
  1
{\fＭＳ ゴシック|b0|i0|c128|p49;177}
 73
     1
 44
1.0
  0
LINE
  5
3FB
330
1F
100
AcDbEntity
  8
0-B
  6
Continuous
 62
   120
370
     5
100
AcDbLine
 10
1417.4991566426
 20
1745.714622040972
 30
0.0
 11
1417.4991566426
 21
1845.714622040971
 31
0.0
  0
LINE
  5
3FC
330
1F
100
AcDbEntity
  8
0-B
  6
Continuous
 62
   120
370
     5
100
AcDbLine
 10
3187.4991566426
 20
1745.714622040972
 30
0.0
 11
3187.4991566426
 21
1845.714622040971
 31
0.0
  0
MTEXT
  5
3FD
330
1F
100
AcDbEntity
  8
0-B
  6
Continuous
 62
     7
370
   211
100
AcDbMText
 10
2247.499156642602
 20
1638.814622040973
 30
0.0
 40
76.19999999999999
 41
150.0
 46
0.0
 71
     7
 72
     1
  1
{\fＭＳ ゴシック|b0|i0|c128|p49;9.2}
 73
     1
 44
1.0
  0
MTEXT
  5
3FE
330
1F
100
AcDbEntity
  8
0-B
  6
Continuous
 62
     7
370
   211
100
AcDbMText
 10
2627.499156642601
 20
1638.814622040973
 30
0.0
 40
76.19999999999999
 41
150.0
 46
0.0
 71
     7
 72
     1
  1
{\fＭＳ ゴシック|b0|i0|c128|p49;9.2}
 73
     1
 44
1.0
  0
MTEXT
  5
3FF
330
1F
100
AcDbEntity
  8
0-B
  6
Continuous
 62
     7
370
   211
100
AcDbMText
 10
3010.7491566426
 20
1639.290872040973
 30
0.0
 40
77.15249999999999
 41
202.5
 46
0.0
 71
     7
 72
     1
  1
{\fＭＳ ゴシック|b0|i0|c128|p49;15.1}
 73
     1
 44
1.0
  0
LINE
  5
400
330
1F
100
AcDbEntity
  8
0-0
  6
JWW_HOJO
 62
   120
370
     5
100
AcDbLine
 10
3237.499156642599
 20
2295.714622040971
 30
0.0
 11
1367.499156642601
 21
2295.714622040971
 31
0.0
  0
LINE
  5
401
330
1F
100
AcDbEntity
  8
0-0
  6
JWW_HOJO
 62
   120
370
     5
100
AcDbLine
 10
1367.499156642601
 20
2295.714622040971
 30
0.0
 11
1367.499156642601
 21
1845.714622040971
 31
0.0
  0
LINE
  5
402
330
1F
100
AcDbEntity
  8
0-0
  6
JWW_HOJO
 62
   120
370
     5
100
AcDbLine
 10
3237.499156642599
 20
1845.714622040971
 30
0.0
 11
3237.499156642599
 21
2295.714622040971
 31
0.0
  0
LINE
  5
403
330
1F
100
AcDbEntity
  8
0-0
  6
JWW_HOJO
 62
   120
370
     5
100
AcDbLine
 10
1367.499156642601
 20
1845.714622040971
 30
0.0
 11
3237.499156642599
 21
1845.714622040971
 31
0.0
  0
LINE
  5
404
330
1F
100
AcDbEntity
  8
0-0
  6
JWW_HOJO
 62
   120
370
     5
100
AcDbLine
 10
3337.4991566426
 20
1745.714622040972
 30
0.0
 11
3337.4991566426
 21
2395.714622040972
 31
0.0
  0
LINE
  5
405
330
1F
100
AcDbEntity
  8
0-0
  6
JWW_HOJO
 62
   120
370
     5
100
AcDbLine
 10
3337.4991566426
 20
2395.714622040972
 30
0.0
 11
1267.4991566426
 21
2395.714622040972
 31
0.0
  0
LINE
  5
406
330
1F
100
AcDbEntity
  8
0-0
  6
JWW_HOJO
 62
   120
370
     5
100
AcDbLine
 10
1267.4991566426
 20
2395.714622040972
 30
0.0
 11
1267.4991566426
 21
1745.714622040972
 31
0.0
  0
LINE
  5
407
330
1F
100
AcDbEntity
  8
0-0
  6
JWW_HOJO
 62
   120
370
     5
100
AcDbLine
 10
1267.4991566426
 20
1745.714622040972
 30
0.0
 11
3337.4991566426
 21
1745.714622040972
 31
0.0
  0
LINE
  5
408
330
1F
100
AcDbEntity
  8
0-0
  6
JWW_HOJO
 62
   120
370
     5
100
AcDbLine
 10
1438.986526999585
 20
3339.885752227106
 30
0.0
 11
1438.986526999585
 21
2889.885752227107
 31
0.0
  0
LINE
  5
409
330
1F
100
AcDbEntity
  8
0-0
  6
JWW_HOJO
 62
   120
370
     5
100
AcDbLine
 10
3403.986526999583
 20
2889.885752227107
 30
0.0
 11
1438.986526999585
 21
2889.885752227107
 31
0.0
  0
LINE
  5
40A
330
1F
100
AcDbEntity
  8
0-0
  6
JWW_HOJO
 62
   120
370
     5
100
AcDbLine
 10
3503.986526999584
 20
2789.885752227108
 30
0.0
 11
1338.986526999582
 21
2789.885752227108
 31
0.0
  0
LINE
  5
40B
330
1F
100
AcDbEntity
  8
0-0
  6
JWW_HOJO
 62
   120
370
     5
100
AcDbLine
 10
1338.986526999582
 20
3439.885752227107
 30
0.0
 11
1338.986526999582
 21
2789.885752227108
 31
0.0
  0
LINE
  5
40C
330
1F
100
AcDbEntity
  8
0-0
  6
JWW_HOJO
 62
   120
370
     5
100
AcDbLine
 10
1238.986526999583
 20
3539.885752227108
 30
0.0
 11
1238.986526999583
 21
2689.885752227107
 31
0.0
  0
LINE
  5
40D
330
1F
100
AcDbEntity
  8
0-0
  6
JWW_HOJO
 62
   120
370
     5
100
AcDbLine
 10
3503.986526999584
 20
3439.885752227107
 30
0.0
 11
1338.986526999582
 21
3439.885752227107
 31
0.0
  0
LINE
  5
40E
330
1F
100
AcDbEntity
  8
0-0
  6
JWW_HOJO
 62
   120
370
     5
100
AcDbLine
 10
3503.986526999584
 20
2689.885752227107
 30
0.0
 11
3503.986526999584
 21
3539.885752227108
 31
0.0
  0
LINE
  5
40F
330
1F
100
AcDbEntity
  8
0-0
  6
JWW_HOJO
 62
   120
370
     5
100
AcDbLine
 10
3503.986526999584
 20
3539.885752227108
 30
0.0
 11
1238.986526999583
 21
3539.885752227108
 31
0.0
  0
MTEXT
  5
410
330
1F
100
AcDbEntity
  8
0-A
  6
Continuous
 62
     7
370
     9
100
AcDbMText
 10
1147.499699979216
 20
2474.291984353676
 30
0.0
 40
91.44
 41
960.0
 46
0.0
 71
     7
 72
     1
  1
{\fＭＳ ゴシック|b0|i0|c128|p49;固定枠１９５幅用}
 73
     1
 44
1.0
  0
MTEXT
  5
411
330
1F
100
AcDbEntity
  8
0-A
  6
Continuous
 62
     7
370
     9
100
AcDbMText
 10
3532.499897931074
 20
2482.415386985225
 30
0.0
 40
68.58000000000001
 41
720.0
 46
0.0
 71
     7
 72
     1
  1
{\fＭＳ ゴシック|b0|i0|c128|p49;3,560×187×30.0}
 73
     1
 44
1.0
  0
MTEXT
  5
412
330
1F
100
AcDbEntity
  8
0-A
  6
Continuous
 62
     7
370
     9
100
AcDbMText
 10
4402.499897931073
 20
3553.844026901606
 30
0.0
 40
68.58
 41
585.0
 46
0.0
 71
     7
 72
     1
  1
{\fＭＳ ゴシック|b0|i0|c128|p49;ＤＭＢＷ93-□}
 73
     1
 44
1.0
  0
MTEXT
  5
413
330
1F
100
AcDbEntity
  8
0-A
  6
Continuous
 62
     7
370
     9
100
AcDbMText
 10
4402.499897931073
 20
2482.415386985225
 30
0.0
 40
68.58
 41
585.0
 46
0.0
 71
     7
 72
     1
  1
{\fＭＳ ゴシック|b0|i0|c128|p49;ＥＭＢＷ99-□}
 73
     1
 44
1.0
  0
MTEXT
  5
414
330
1F
100
AcDbEntity
  8
0-A
  6
Continuous
 62
     7
370
     9
100
AcDbMText
 10
4402.499897931073
 20
1406.700497068849
 30
0.0
 40
60.00750000000001
 41
630.0
 46
0.0
 71
     7
 72
     1
  1
{\fＭＳ ゴシック|b0|i0|c128|p49;ＤＣＱＷ9ＳＢ-□}
 73
     1
 44
1.0
  0
LINE
  5
415
330
1F
100
AcDbEntity
  8
F-1
  6
JWW_DASHED1
 62
     7
370
     9
100
AcDbLine
 10
1114.999521616338
 20
2638.571821971289
 30
0.0
 11
5689.998791668862
 21
2638.571821971289
 31
0.0
  0
LINE
  5
416
330
1F
100
AcDbEntity
  8
F-1
  6
Continuous
 62
     7
370
     9
100
AcDbLine
 10
1114.999521616338
 20
3710.000461887669
 30
0.0
 11
1114.999521616338
 21
-575.7139353954653
 31
0.0
  0
LINE
  5
417
330
1F
100
AcDbEntity
  8
F-1
  6
Continuous
 62
     7
370
     9
100
AcDbLine
 10
-4730.000028867985
 20
3710.000461887669
 30
0.0
 11
-4730.000028867985
 21
-575.7139353954653
 31
0.0
  0
LINE
  5
418
330
1F
100
AcDbEntity
  8
F-1
  6
Continuous
 62
     7
370
     9
100
AcDbLine
 10
-5989.999990205507
 20
-575.7139353954653
 30
0.0
 11
-155.0005732355933
 21
-575.7139353954653
 31
0.0
  0
LINE
  5
419
330
1F
100
AcDbEntity
  8
F-1
  6
Continuous
 62
     7
370
     9
100
AcDbLine
 10
-5989.999990205507
 20
-1647.142900076612
 30
0.0
 11
-154.9998309161253
 21
-1647.142900076612
 31
0.0
  0
LINE
  5
41A
330
1F
100
AcDbEntity
  8
F-1
  6
JWW_DASHED1
 62
     7
370
     9
100
AcDbLine
 10
-4730.000028867985
 20
495.7143797561466
 30
0.0
 11
-155.0007588154605
 21
495.7143797561466
 31
0.0
  0
LINE
  5
41B
330
1F
100
AcDbEntity
  8
F-1
  6
JWW_DASHED1
 62
     7
370
     9
100
AcDbLine
 10
1114.999521616338
 20
495.7143797561457
 30
0.0
 11
5689.999719568197
 21
495.7143797561457
 31
0.0
  0
MTEXT
  5
41C
330
1F
100
AcDbEntity
  8
0-A
  6
Continuous
 62
     7
370
     0
100
AcDbMText
 10
952.4996999792156
 20
717.1488620967193
 30
0.0
 40
91.44
 41
480.0
 46
0.0
 71
     7
 72
     1
  1
{\f@ＭＳ ゴシック|b0|i0|c128|p49;敷居・・}
 11
-1.836909530733566E-16
 21
-1.0
 31
0.0
 73
     1
 44
1.0
  0
MTEXT
  5
41D
330
1F
100
AcDbEntity
  8
0-A
  6
Continuous
 62
     7
370
     0
100
AcDbMText
 10
-4895.000028867983
 20
717.1488620967202
 30
0.0
 40
91.44
 41
480.0
 46
0.0
 71
     7
 72
     1
  1
{\f@ＭＳ ゴシック|b0|i0|c128|p49;敷居・・}
 11
-1.836909530733566E-16
 21
-1.0
 31
0.0
 73
     1
 44
1.0
  0
LINE
  5
41E
330
1F
100
AcDbEntity
  8
0-0
  6
JWW_HOJO
 62
   120
370
     5
100
AcDbLine
 10
-5055.000285973427
 20
1592.857502013099
 30
0.0
 11
-5875.000266642187
 21
1592.857502013099
 31
0.0
  0
MTEXT
  5
41F
330
1F
100
AcDbEntity
  8
0-A
  6
Continuous
 62
     7
370
     9
100
AcDbMText
 10
-5825.000276307807
 20
1518.577502013099
 30
0.0
 40
91.44
 41
720.0
 46
0.0
 71
     7
 72
     1
  1
{\fＭＳ ゴシック|b0|i0|c128|p49;２枚引き込み}
 73
     1
 44
1.0
  0
LINE
  5
420
330
1F
100
AcDbEntity
  8
0-0
  6
JWW_HOJO
 62
   120
370
     5
100
AcDbLine
 10
792.4994428737737
 20
1592.8575020131
 30
0.0
 11
-27.50053779498415
 21
1592.8575020131
 31
0.0
  0
MTEXT
  5
421
330
1F
100
AcDbEntity
  8
0-A
  6
Continuous
 62
     7
370
     9
100
AcDbMText
 10
22.49945253939217
 20
1518.5775020131
 30
0.0
 40
91.44
 41
720.0
 46
0.0
 71
     7
 72
     1
  1
{\fＭＳ ゴシック|b0|i0|c128|p49;３枚引き込み}
 73
     1
 44
1.0
  0
LINE
  5
422
330
1F
100
AcDbEntity
  8
F-1
  6
Continuous
 62
     7
370
     9
100
AcDbLine
 10
904.9995216163379
 20
1567.143019672525
 30
0.0
 11
5689.999719568197
 21
1567.143019672525
 31
0.0
  0
LINE
  5
423
330
1F
100
AcDbEntity
  8
0-B
  6
Continuous
 62
   120
370
     5
100
AcDbLine
 10
1392.498822858948
 20
-119.5194617161593
 30
0.0
 11
1392.498822858948
 21
0.4796895137002366
 31
0.0
  0
LWPOLYLINE
  5
424
330
1F
100
AcDbEntity
  8
0-B
  6
Continuous
 62
     7
370
     9
100
AcDbPolyline
 90
        4
 70
     1
 43
3.0
 10
1393.998822858948
 20
-119.5194617161593
 42
0.4142135623731
 10
1392.498822858948
 20
-118.0194617161593
 42
0.4142135623731
 10
1390.998822858948
 20
-119.5194617161593
 42
0.4142135623731
 10
1392.498822858948
 20
-121.0194617161593
 42
0.4142135623731
  0
LWPOLYLINE
  5
425
330
1F
100
AcDbEntity
  8
0-B
  6
Continuous
 62
     7
370
     9
100
AcDbPolyline
 90
        4
 70
     1
 43
3.0
 10
1393.998822858948
 20
0.4796895137002366
 42
0.4142135623731
 10
1392.498822858948
 20
1.979689513700237
 42
0.4142135623731
 10
1390.998822858948
 20
0.4796895137002366
 42
0.4142135623731
 10
1392.498822858948
 20
-1.020310486299763
 42
0.4142135623731
  0
LINE
  5
426
330
1F
100
AcDbEntity
  8
0-B
  6
Continuous
 62
   120
370
     5
100
AcDbLine
 10
1292.498822858945
 20
-119.5194617161593
 30
0.0
 11
1492.498822858945
 21
-119.5194617161593
 31
0.0
  0
LINE
  5
427
330
1F
100
AcDbEntity
  8
0-B
  6
Continuous
 62
   120
370
     5
100
AcDbLine
 10
1392.498822858948
 20
0.4796895137002366
 30
0.0
 11
1492.498822858945
 21
0.4796895137002366
 31
0.0
  0
LINE
  5
428
330
1F
100
AcDbEntity
  8
0-B
  6
Continuous
 62
   120
370
     5
100
AcDbLine
 10
1392.498822858948
 20
0.4796895137002366
 30
0.0
 11
1392.498822858948
 21
30.4805382838407
 31
0.0
  0
LWPOLYLINE
  5
429
330
1F
100
AcDbEntity
  8
0-B
  6
Continuous
 62
     7
370
     9
100
AcDbPolyline
 90
        4
 70
     1
 43
3.0
 10
1393.998822858948
 20
30.4805382838407
 42
0.4142135623731
 10
1392.498822858948
 20
31.9805382838407
 42
0.4142135623731
 10
1390.998822858948
 20
30.4805382838407
 42
0.4142135623731
 10
1392.498822858948
 20
28.9805382838407
 42
0.4142135623731
  0
LINE
  5
42A
330
1F
100
AcDbEntity
  8
0-B
  6
Continuous
 62
   120
370
     5
100
AcDbLine
 10
1292.498822858945
 20
30.4805382838407
 30
0.0
 11
1492.498822858945
 21
30.4805382838407
 31
0.0
  0
LINE
  5
42B
330
1F
100
AcDbEntity
  8
0-B
  6
Continuous
 62
   120
370
     5
100
AcDbLine
 10
1292.498822858945
 20
-119.5194617161593
 30
0.0
 11
1292.498822858945
 21
30.4805382838407
 31
0.0
  0
LWPOLYLINE
  5
42C
330
1F
100
AcDbEntity
  8
0-B
  6
Continuous
 62
     7
370
     9
100
AcDbPolyline
 90
        4
 70
     1
 43
3.0
 10
1293.998822858945
 20
-119.5194617161593
 42
0.4142135623731
 10
1292.498822858945
 20
-118.0194617161593
 42
0.4142135623731
 10
1290.998822858945
 20
-119.5194617161593
 42
0.4142135623731
 10
1292.498822858945
 20
-121.0194617161593
 42
0.4142135623731
  0
LWPOLYLINE
  5
42D
330
1F
100
AcDbEntity
  8
0-B
  6
Continuous
 62
     7
370
     9
100
AcDbPolyline
 90
        4
 70
     1
 43
3.0
 10
1293.998822858945
 20
30.4805382838407
 42
0.4142135623731
 10
1292.498822858945
 20
31.9805382838407
 42
0.4142135623731
 10
1290.998822858945
 20
30.4805382838407
 42
0.4142135623731
 10
1292.498822858945
 20
28.9805382838407
 42
0.4142135623731
  0
LINE
  5
42E
330
1F
100
AcDbEntity
  8
0-0
  6
JWW_HOJO
 62
   120
370
     5
100
AcDbLine
 10
1492.498822858945
 20
180.4805382838407
 30
0.0
 11
1492.498822858945
 21
-269.5194617161593
 31
0.0
  0
LINE
  5
42F
330
1F
100
AcDbEntity
  8
0-0
  6
JWW_HOJO
 62
   120
370
     5
100
AcDbLine
 10
1292.498822858945
 20
280.4805382838418
 30
0.0
 11
1292.498822858945
 21
-369.5194617161587
 31
0.0
  0
LINE
  5
430
330
1F
100
AcDbEntity
  8
0-0
  6
JWW_HOJO
 62
   120
370
     5
100
AcDbLine
 10
1392.498822858944
 20
280.4805382838418
 30
0.0
 11
1392.498822858944
 21
-369.5194617161587
 31
0.0
  0
MTEXT
  5
431
330
1F
100
AcDbEntity
  8
0-B
  6
Continuous
 62
     7
370
   211
100
AcDbMText
 10
1397.498822858945
 20
25.12998958683878
 30
0.0
 40
68.58
 41
45.0
 46
0.0
 71
     7
 72
     1
  1
{\fＭＳ ゴシック|b0|i0|c128|p49;3}
 11
6.123031769111886E-17
 21
1.0
 31
0.0
 73
     1
 44
1.0
  0
MTEXT
  5
432
330
1F
100
AcDbEntity
  8
0-B
  6
Continuous
 62
     7
370
   211
100
AcDbMText
 10
1297.498822858945
 20
-101.1219617161593
 30
0.0
 40
74.295
 41
97.5
 46
0.0
 71
     7
 72
     1
  1
{\fＭＳ ゴシック|b0|i0|c128|p49;15}
 11
6.123031769111886E-17
 21
1.0
 31
0.0
 73
     1
 44
1.0
  0
MTEXT
  5
433
330
1F
100
AcDbEntity
  8
0-B
  6
Continuous
 62
     7
370
   211
100
AcDbMText
 10
1397.498822858945
 20
-116.1223861012295
 30
0.0
 40
74.295
 41
97.5
 46
0.0
 71
     7
 72
     1
  1
{\fＭＳ ゴシック|b0|i0|c128|p49;12}
 11
6.123031769111886E-17
 21
1.0
 31
0.0
 73
     1
 44
1.0
  0
LINE
  5
434
330
1F
100
AcDbEntity
  8
0-4
  6
Continuous
 62
    92
370
    13
100
AcDbLine
 10
1582.498822858944
 20
-119.5194617161593
 30
0.0
 11
1582.498822858944
 21
0.4796895137002366
 31
0.0
  0
LINE
  5
435
330
1F
100
AcDbEntity
  8
0-4
  6
Continuous
 62
    92
370
    13
100
AcDbLine
 10
1542.498822858941
 20
0.4805382838372907
 30
0.0
 11
1582.498822858944
 21
0.4805382838372907
 31
0.0
  0
LWPOLYLINE
  5
436
330
1F
100
AcDbEntity
  8
0-B
  6
Continuous
 62
     7
370
     9
100
AcDbPolyline
 90
        4
 70
     1
 43
3.0
 10
1583.998975446844
 20
-269.5194617161593
 42
0.4142135623731
 10
1582.498975446844
 20
-268.0194617161593
 42
0.4142135623731
 10
1580.998975446844
 20
-269.5194617161593
 42
0.4142135623731
 10
1582.498975446844
 20
-271.0194617161593
 42
0.4142135623731
  0
LINE
  5
437
330
1F
100
AcDbEntity
  8
0-B
  6
Continuous
 62
   120
370
     5
100
AcDbLine
 10
1582.498975446844
 20
-269.5194617161593
 30
0.0
 11
1582.498975446844
 21
-169.519461716159
 31
0.0
  0
LINE
  5
438
330
1F
100
AcDbEntity
  8
0-B
  6
Continuous
 62
   120
370
     5
100
AcDbLine
 10
1582.498975446844
 20
-269.5194617161593
 30
0.0
 11
1542.498822858941
 21
-269.5194617161593
 31
0.0
  0
ARC
  5
439
330
1F
100
AcDbEntity
  8
0-4
  6
Continuous
 62
    92
370
    13
100
AcDbCircle
 10
1572.498822858944
 20
0.4805382838372907
 30
0.0
 40
30.0
100
AcDbArc
 50
90.0
 51
180.0
  0
ARC
  5
43A
330
1F
100
AcDbEntity
  8
0-4
  6
Continuous
 62
    92
370
    13
100
AcDbCircle
 10
1572.498822858944
 20
0.4805382838372907
 30
0.0
 40
25.0
100
AcDbArc
 50
90.0
 51
180.0
  0
LINE
  5
43B
330
1F
100
AcDbEntity
  8
0-0
  6
JWW_HOJO
 62
   120
370
     5
100
AcDbLine
 10
1542.498822858944
 20
-169.519461716159
 30
0.0
 11
1542.498822858944
 21
80.48053828384127
 31
0.0
  0
LWPOLYLINE
  5
43C
330
1F
100
AcDbEntity
  8
0-B
  6
Continuous
 62
     7
370
     9
100
AcDbPolyline
 90
        4
 70
     1
 43
3.0
 10
1543.998822858941
 20
-269.5194617161593
 42
0.4142135623731
 10
1542.498822858941
 20
-268.0194617161593
 42
0.4142135623731
 10
1540.998822858941
 20
-269.5194617161593
 42
0.4142135623731
 10
1542.498822858941
 20
-271.0194617161593
 42
0.4142135623731
  0
LINE
  5
43D
330
1F
100
AcDbEntity
  8
0-B
  6
Continuous
 62
   120
370
     5
100
AcDbLine
 10
1542.498822858941
 20
-369.5194617161587
 30
0.0
 11
1542.498822858941
 21
-169.519461716159
 31
0.0
  0
LWPOLYLINE
  5
43E
330
1F
100
AcDbEntity
  8
0-B
  6
Continuous
 62
     7
370
     9
100
AcDbPolyline
 90
        4
 70
     1
 43
3.0
 10
1543.998822858941
 20
-369.5194617161587
 42
0.4142135623731
 10
1542.498822858941
 20
-368.0194617161587
 42
0.4142135623731
 10
1540.998822858941
 20
-369.5194617161587
 42
0.4142135623731
 10
1542.498822858941
 20
-371.0194617161587
 42
0.4142135623731
  0
MTEXT
  5
43F
330
1F
100
AcDbEntity
  8
0-B
  6
Continuous
 62
     7
370
   211
100
AcDbMText
 10
1544.998899152893
 20
-285.2294617161581
 30
0.0
 40
68.58
 41
45.0
 46
0.0
 71
     7
 72
     1
  1
{\fＭＳ ゴシック|b0|i0|c128|p49;4}
 73
     1
 44
1.0
  0
LINE
  5
440
330
1F
100
AcDbEntity
  8
0-B
  6
Continuous
 62
   120
370
     5
100
AcDbLine
 10
-4272.499929892053
 20
-119.5194617161593
 30
0.0
 11
-4272.499929892053
 21
0.4796895137002366
 31
0.0
  0
LWPOLYLINE
  5
441
330
1F
100
AcDbEntity
  8
0-B
  6
Continuous
 62
     7
370
     9
100
AcDbPolyline
 90
        4
 70
     1
 43
3.0
 10
-4270.999929892052
 20
-119.5194617161593
 42
0.4142135623731
 10
-4272.499929892053
 20
-118.0194617161593
 42
0.4142135623731
 10
-4273.999929892053
 20
-119.5194617161593
 42
0.4142135623731
 10
-4272.499929892053
 20
-121.0194617161593
 42
0.4142135623731
  0
LWPOLYLINE
  5
442
330
1F
100
AcDbEntity
  8
0-B
  6
Continuous
 62
     7
370
     9
100
AcDbPolyline
 90
        4
 70
     1
 43
3.0
 10
-4270.999929892052
 20
0.4796895137002366
 42
0.4142135623731
 10
-4272.499929892053
 20
1.979689513700237
 42
0.4142135623731
 10
-4273.999929892053
 20
0.4796895137002366
 42
0.4142135623731
 10
-4272.499929892053
 20
-1.020310486299763
 42
0.4142135623731
  0
LINE
  5
443
330
1F
100
AcDbEntity
  8
0-B
  6
Continuous
 62
   120
370
     5
100
AcDbLine
 10
-4372.499929892056
 20
-119.5194617161593
 30
0.0
 11
-4172.499929892055
 21
-119.5194617161593
 31
0.0
  0
LINE
  5
444
330
1F
100
AcDbEntity
  8
0-B
  6
Continuous
 62
   120
370
     5
100
AcDbLine
 10
-4272.499929892053
 20
0.4796895137002366
 30
0.0
 11
-4172.499929892055
 21
0.4796895137002366
 31
0.0
  0
LINE
  5
445
330
1F
100
AcDbEntity
  8
0-B
  6
Continuous
 62
   120
370
     5
100
AcDbLine
 10
-4272.499929892053
 20
0.4796895137002366
 30
0.0
 11
-4272.499929892053
 21
30.4805382838407
 31
0.0
  0
LWPOLYLINE
  5
446
330
1F
100
AcDbEntity
  8
0-B
  6
Continuous
 62
     7
370
     9
100
AcDbPolyline
 90
        4
 70
     1
 43
3.0
 10
-4270.999929892052
 20
30.4805382838407
 42
0.4142135623731
 10
-4272.499929892053
 20
31.9805382838407
 42
0.4142135623731
 10
-4273.999929892053
 20
30.4805382838407
 42
0.4142135623731
 10
-4272.499929892053
 20
28.9805382838407
 42
0.4142135623731
  0
LINE
  5
447
330
1F
100
AcDbEntity
  8
0-B
  6
Continuous
 62
   120
370
     5
100
AcDbLine
 10
-4372.499929892056
 20
30.4805382838407
 30
0.0
 11
-4172.499929892055
 21
30.4805382838407
 31
0.0
  0
LINE
  5
448
330
1F
100
AcDbEntity
  8
0-B
  6
Continuous
 62
   120
370
     5
100
AcDbLine
 10
-4372.499929892056
 20
-119.5194617161593
 30
0.0
 11
-4372.499929892056
 21
30.4805382838407
 31
0.0
  0
LWPOLYLINE
  5
449
330
1F
100
AcDbEntity
  8
0-B
  6
Continuous
 62
     7
370
     9
100
AcDbPolyline
 90
        4
 70
     1
 43
3.0
 10
-4370.999929892055
 20
-119.5194617161593
 42
0.4142135623731
 10
-4372.499929892056
 20
-118.0194617161593
 42
0.4142135623731
 10
-4373.999929892056
 20
-119.5194617161593
 42
0.4142135623731
 10
-4372.499929892056
 20
-121.0194617161593
 42
0.4142135623731
  0
LWPOLYLINE
  5
44A
330
1F
100
AcDbEntity
  8
0-B
  6
Continuous
 62
     7
370
     9
100
AcDbPolyline
 90
        4
 70
     1
 43
3.0
 10
-4370.999929892055
 20
30.4805382838407
 42
0.4142135623731
 10
-4372.499929892056
 20
31.9805382838407
 42
0.4142135623731
 10
-4373.999929892056
 20
30.4805382838407
 42
0.4142135623731
 10
-4372.499929892056
 20
28.9805382838407
 42
0.4142135623731
  0
LINE
  5
44B
330
1F
100
AcDbEntity
  8
0-0
  6
JWW_HOJO
 62
   120
370
     5
100
AcDbLine
 10
-4172.499929892055
 20
180.4805382838407
 30
0.0
 11
-4172.499929892055
 21
-269.5194617161593
 31
0.0
  0
LINE
  5
44C
330
1F
100
AcDbEntity
  8
0-0
  6
JWW_HOJO
 62
   120
370
     5
100
AcDbLine
 10
-4372.499929892056
 20
280.4805382838418
 30
0.0
 11
-4372.499929892056
 21
-369.5194617161587
 31
0.0
  0
LINE
  5
44D
330
1F
100
AcDbEntity
  8
0-0
  6
JWW_HOJO
 62
   120
370
     5
100
AcDbLine
 10
-4272.499929892056
 20
280.4805382838418
 30
0.0
 11
-4272.499929892056
 21
-369.5194617161587
 31
0.0
  0
MTEXT
  5
44E
330
1F
100
AcDbEntity
  8
0-B
  6
Continuous
 62
     7
370
   211
100
AcDbMText
 10
-4267.499929892056
 20
25.12998958683878
 30
0.0
 40
68.58
 41
45.0
 46
0.0
 71
     7
 72
     1
  1
{\fＭＳ ゴシック|b0|i0|c128|p49;3}
 11
6.123031769111886E-17
 21
1.0
 31
0.0
 73
     1
 44
1.0
  0
MTEXT
  5
44F
330
1F
100
AcDbEntity
  8
0-B
  6
Continuous
 62
     7
370
   211
100
AcDbMText
 10
-4367.499929892055
 20
-101.1219617161593
 30
0.0
 40
74.295
 41
97.5
 46
0.0
 71
     7
 72
     1
  1
{\fＭＳ ゴシック|b0|i0|c128|p49;15}
 11
6.123031769111886E-17
 21
1.0
 31
0.0
 73
     1
 44
1.0
  0
MTEXT
  5
450
330
1F
100
AcDbEntity
  8
0-B
  6
Continuous
 62
     7
370
   211
100
AcDbMText
 10
-4267.499929892056
 20
-116.1223861012295
 30
0.0
 40
74.295
 41
97.5
 46
0.0
 71
     7
 72
     1
  1
{\fＭＳ ゴシック|b0|i0|c128|p49;12}
 11
6.123031769111886E-17
 21
1.0
 31
0.0
 73
     1
 44
1.0
  0
LINE
  5
451
330
1F
100
AcDbEntity
  8
0-4
  6
Continuous
 62
    92
370
    13
100
AcDbLine
 10
-4082.499929892057
 20
-119.5194617161593
 30
0.0
 11
-4082.499929892057
 21
0.4796895137002366
 31
0.0
  0
LINE
  5
452
330
1F
100
AcDbEntity
  8
0-4
  6
Continuous
 62
    92
370
    13
100
AcDbLine
 10
-4122.499929892059
 20
0.4805382838372907
 30
0.0
 11
-4082.499929892057
 21
0.4805382838372907
 31
0.0
  0
LWPOLYLINE
  5
453
330
1F
100
AcDbEntity
  8
0-B
  6
Continuous
 62
     7
370
     9
100
AcDbPolyline
 90
        4
 70
     1
 43
3.0
 10
-4080.999777304156
 20
-269.5194617161593
 42
0.4142135623731
 10
-4082.499777304156
 20
-268.0194617161593
 42
0.4142135623731
 10
-4083.999777304156
 20
-269.5194617161593
 42
0.4142135623731
 10
-4082.499777304156
 20
-271.0194617161593
 42
0.4142135623731
  0
LINE
  5
454
330
1F
100
AcDbEntity
  8
0-B
  6
Continuous
 62
   120
370
     5
100
AcDbLine
 10
-4082.499777304156
 20
-269.5194617161593
 30
0.0
 11
-4082.499777304156
 21
-169.519461716159
 31
0.0
  0
LINE
  5
455
330
1F
100
AcDbEntity
  8
0-B
  6
Continuous
 62
   120
370
     5
100
AcDbLine
 10
-4082.499777304156
 20
-269.5194617161593
 30
0.0
 11
-4122.499929892059
 21
-269.5194617161593
 31
0.0
  0
ARC
  5
456
330
1F
100
AcDbEntity
  8
0-4
  6
Continuous
 62
    92
370
    13
100
AcDbCircle
 10
-4092.499929892056
 20
0.4805382838372907
 30
0.0
 40
30.0
100
AcDbArc
 50
90.0
 51
180.0
  0
ARC
  5
457
330
1F
100
AcDbEntity
  8
0-4
  6
Continuous
 62
    92
370
    13
100
AcDbCircle
 10
-4092.499929892056
 20
0.4805382838372907
 30
0.0
 40
25.0
100
AcDbArc
 50
90.0
 51
180.0
  0
LINE
  5
458
330
1F
100
AcDbEntity
  8
0-0
  6
JWW_HOJO
 62
   120
370
     5
100
AcDbLine
 10
-4122.499929892056
 20
-169.519461716159
 30
0.0
 11
-4122.499929892056
 21
80.48053828384127
 31
0.0
  0
LWPOLYLINE
  5
459
330
1F
100
AcDbEntity
  8
0-B
  6
Continuous
 62
     7
370
     9
100
AcDbPolyline
 90
        4
 70
     1
 43
3.0
 10
-4120.999929892059
 20
-269.5194617161593
 42
0.4142135623731
 10
-4122.499929892059
 20
-268.0194617161593
 42
0.4142135623731
 10
-4123.999929892059
 20
-269.5194617161593
 42
0.4142135623731
 10
-4122.499929892059
 20
-271.0194617161593
 42
0.4142135623731
  0
LINE
  5
45A
330
1F
100
AcDbEntity
  8
0-B
  6
Continuous
 62
   120
370
     5
100
AcDbLine
 10
-4122.499929892059
 20
-369.5194617161587
 30
0.0
 11
-4122.499929892059
 21
-169.519461716159
 31
0.0
  0
LWPOLYLINE
  5
45B
330
1F
100
AcDbEntity
  8
0-B
  6
Continuous
 62
     7
370
     9
100
AcDbPolyline
 90
        4
 70
     1
 43
3.0
 10
-4120.999929892059
 20
-369.5194617161587
 42
0.4142135623731
 10
-4122.499929892059
 20
-368.0194617161587
 42
0.4142135623731
 10
-4123.999929892059
 20
-369.5194617161587
 42
0.4142135623731
 10
-4122.499929892059
 20
-371.0194617161587
 42
0.4142135623731
  0
MTEXT
  5
45C
330
1F
100
AcDbEntity
  8
0-B
  6
Continuous
 62
     7
370
   211
100
AcDbMText
 10
-4119.999853598108
 20
-285.2294617161581
 30
0.0
 40
68.58
 41
45.0
 46
0.0
 71
     7
 72
     1
  1
{\fＭＳ ゴシック|b0|i0|c128|p49;4}
 73
     1
 44
1.0
  0
LINE
  5
45D
330
1F
100
AcDbEntity
  8
0-0
  6
JWW_HOJO
 62
   120
370
     5
100
AcDbLine
 10
-4372.499929892056
 20
180.4805382838407
 30
0.0
 11
-2962.499929892055
 21
180.4805382838407
 31
0.0
  0
LINE
  5
45E
330
1F
100
AcDbEntity
  8
0-0
  6
JWW_HOJO
 62
   120
370
     5
100
AcDbLine
 10
-4372.499929892056
 20
280.4805382838418
 30
0.0
 11
-2962.499929892055
 21
280.4805382838418
 31
0.0
  0
LINE
  5
45F
330
1F
100
AcDbEntity
  8
0-0
  6
JWW_HOJO
 62
   120
370
     5
100
AcDbLine
 10
-2962.499929892055
 20
-269.5194617161593
 30
0.0
 11
-4172.499929892055
 21
-269.5194617161593
 31
0.0
  0
LINE
  5
460
330
1F
100
AcDbEntity
  8
0-0
  6
JWW_HOJO
 62
   120
370
     5
100
AcDbLine
 10
-2962.499929892055
 20
-369.5194617161587
 30
0.0
 11
-2962.499929892055
 21
280.4805382838418
 31
0.0
  0
LINE
  5
461
330
1F
100
AcDbEntity
  8
0-0
  6
JWW_HOJO
 62
   120
370
     5
100
AcDbLine
 10
-2962.499929892055
 20
-369.5194617161587
 30
0.0
 11
-4372.499929892056
 21
-369.5194617161587
 31
0.0
  0
LINE
  5
462
330
1F
100
AcDbEntity
  8
0-B
  6
Continuous
 62
   120
370
     5
100
AcDbLine
 10
-3052.499929892057
 20
-269.5194617161593
 30
0.0
 11
-4082.499777304156
 21
-269.5194617161593
 31
0.0
  0
LINE
  5
463
330
1F
100
AcDbEntity
  8
0-4
  6
Continuous
 62
    92
370
    13
100
AcDbLine
 10
-4082.499777304156
 20
-119.5194617161593
 30
0.0
 11
-3052.499929892057
 21
-119.5194617161593
 31
0.0
  0
LINE
  5
464
330
1F
100
AcDbEntity
  8
0-B
  6
Continuous
 62
   120
370
     5
100
AcDbLine
 10
-3052.499929892057
 20
-269.5194617161593
 30
0.0
 11
-3052.499929892057
 21
-169.519461716159
 31
0.0
  0
LWPOLYLINE
  5
465
330
1F
100
AcDbEntity
  8
0-B
  6
Continuous
 62
     7
370
     9
100
AcDbPolyline
 90
        4
 70
     1
 43
3.0
 10
-3050.999929892057
 20
-269.5194617161593
 42
0.4142135623731
 10
-3052.499929892057
 20
-268.0194617161593
 42
0.4142135623731
 10
-3053.999929892057
 20
-269.5194617161593
 42
0.4142135623731
 10
-3052.499929892057
 20
-271.0194617161593
 42
0.4142135623731
  0
LINE
  5
466
330
1F
100
AcDbEntity
  8
0-B
  6
Continuous
 62
   120
370
     5
100
AcDbLine
 10
-3012.499929892056
 20
-269.5194617161593
 30
0.0
 11
-3052.499929892057
 21
-269.5194617161593
 31
0.0
  0
LINE
  5
467
330
1F
100
AcDbEntity
  8
0-4
  6
Continuous
 62
    92
370
    13
100
AcDbLine
 10
-3052.499929892057
 20
0.4805382838372907
 30
0.0
 11
-3012.499929892056
 21
0.4805382838372907
 31
0.0
  0
LINE
  5
468
330
1F
100
AcDbEntity
  8
0-4
  6
Continuous
 62
    92
370
    13
100
AcDbLine
 10
-3052.499929892057
 20
-119.5194617161593
 30
0.0
 11
-3052.499929892057
 21
0.4796895137002366
 31
0.0
  0
ARC
  5
469
330
1F
100
AcDbEntity
  8
0-4
  6
Continuous
 62
    92
370
    13
100
AcDbCircle
 10
-3042.499929892059
 20
0.4805382838372907
 30
0.0
 40
30.0
100
AcDbArc
 50
0.0
 51
90.0
  0
ARC
  5
46A
330
1F
100
AcDbEntity
  8
0-4
  6
Continuous
 62
    92
370
    13
100
AcDbCircle
 10
-3042.499929892059
 20
0.4805382838372907
 30
0.0
 40
25.0
100
AcDbArc
 50
0.0
 51
90.0
  0
LINE
  5
46B
330
1F
100
AcDbEntity
  8
0-0
  6
JWW_HOJO
 62
   120
370
     5
100
AcDbLine
 10
-3012.499929892056
 20
80.48053828384127
 30
0.0
 11
-3012.499929892056
 21
-169.519461716159
 31
0.0
  0
LINE
  5
46C
330
1F
100
AcDbEntity
  8
0-0
  6
JWW_HOJO
 62
   120
370
     5
100
AcDbLine
 10
-4122.499929892056
 20
-169.519461716159
 30
0.0
 11
-3012.499929892056
 21
-169.519461716159
 31
0.0
  0
LWPOLYLINE
  5
46D
330
1F
100
AcDbEntity
  8
0-B
  6
Continuous
 62
     7
370
     9
100
AcDbPolyline
 90
        4
 70
     1
 43
3.0
 10
-3010.999929892056
 20
-269.5194617161593
 42
0.4142135623731
 10
-3012.499929892056
 20
-268.0194617161593
 42
0.4142135623731
 10
-3013.999929892056
 20
-269.5194617161593
 42
0.4142135623731
 10
-3012.499929892056
 20
-271.0194617161593
 42
0.4142135623731
  0
LINE
  5
46E
330
1F
100
AcDbEntity
  8
0-B
  6
Continuous
 62
   120
370
     5
100
AcDbLine
 10
-3012.499929892056
 20
-369.5194617161587
 30
0.0
 11
-3012.499929892056
 21
-169.519461716159
 31
0.0
  0
LINE
  5
46F
330
1F
100
AcDbEntity
  8
0-B
  6
Continuous
 62
   120
370
     5
100
AcDbLine
 10
-3012.499929892056
 20
-369.5194617161587
 30
0.0
 11
-4122.499929892059
 21
-369.5194617161587
 31
0.0
  0
LWPOLYLINE
  5
470
330
1F
100
AcDbEntity
  8
0-B
  6
Continuous
 62
     7
370
     9
100
AcDbPolyline
 90
        4
 70
     1
 43
3.0
 10
-3010.999929892056
 20
-369.5194617161587
 42
0.4142135623731
 10
-3012.499929892056
 20
-368.0194617161587
 42
0.4142135623731
 10
-3013.999929892056
 20
-369.5194617161587
 42
0.4142135623731
 10
-3012.499929892056
 20
-371.0194617161587
 42
0.4142135623731
  0
MTEXT
  5
471
330
1F
100
AcDbEntity
  8
0-B
  6
Continuous
 62
     7
370
   211
100
AcDbMText
 10
-3059.999929892057
 20
-285.2294617161581
 30
0.0
 40
68.58
 41
45.0
 46
0.0
 71
     7
 72
     1
  1
{\fＭＳ ゴシック|b0|i0|c128|p49;4}
 73
     1
 44
1.0
  0
LINE
  5
472
330
1F
100
AcDbEntity
  8
0-4
  6
Continuous
 62
    92
370
    13
100
AcDbLine
 10
-4092.500349508751
 20
25.48101512099549
 30
0.0
 11
-3042.499510275351
 21
25.48101512099549
 31
0.0
  0
LINE
  5
473
330
1F
100
AcDbEntity
  8
0-4
  6
Continuous
 62
    92
370
    13
100
AcDbLine
 10
-4092.499929892056
 20
30.4805382838407
 30
0.0
 11
-3042.499929892059
 21
30.4805382838407
 31
0.0
  0
LINE
  5
474
330
1F
100
AcDbEntity
  8
0-0
  6
JWW_HOJO
 62
   120
370
     5
100
AcDbLine
 10
-4122.499929892056
 20
80.48053828384127
 30
0.0
 11
-3012.499929892056
 21
80.48053828384127
 31
0.0
  0
MTEXT
  5
475
330
1F
100
AcDbEntity
  8
0-B
  6
Continuous
 62
     7
370
   211
100
AcDbMText
 10
-3616.249929892056
 20
-381.4194617161593
 30
0.0
 40
76.19999999999999
 41
150.0
 46
0.0
 71
     7
 72
     1
  1
{\fＭＳ ゴシック|b0|i0|c128|p49;111}
 73
     1
 44
1.0
  0
MTEXT
  5
476
330
1F
100
AcDbEntity
  8
0-B
  6
Continuous
 62
     7
370
   211
100
AcDbMText
 10
-3616.249853598107
 20
-281.4194617161581
 30
0.0
 40
76.19999999999999
 41
150.0
 46
0.0
 71
     7
 72
     1
  1
{\fＭＳ ゴシック|b0|i0|c128|p49;103}
 73
     1
 44
1.0
  0
LINE
  5
477
330
1F
100
AcDbEntity
  8
0-0
  6
JWW_HOJO
 62
   120
370
     5
100
AcDbLine
 10
1292.498822858945
 20
180.4805382838407
 30
0.0
 11
3062.498822858945
 21
180.4805382838407
 31
0.0
  0
LINE
  5
478
330
1F
100
AcDbEntity
  8
0-0
  6
JWW_HOJO
 62
   120
370
     5
100
AcDbLine
 10
1292.498822858945
 20
280.4805382838418
 30
0.0
 11
3062.498822858945
 21
280.4805382838418
 31
0.0
  0
LINE
  5
479
330
1F
100
AcDbEntity
  8
0-0
  6
JWW_HOJO
 62
   120
370
     5
100
AcDbLine
 10
3062.498822858945
 20
-269.5194617161593
 30
0.0
 11
1492.498822858945
 21
-269.5194617161593
 31
0.0
  0
LINE
  5
47A
330
1F
100
AcDbEntity
  8
0-0
  6
JWW_HOJO
 62
   120
370
     5
100
AcDbLine
 10
3062.498822858945
 20
-369.5194617161587
 30
0.0
 11
3062.498822858945
 21
280.4805382838418
 31
0.0
  0
LINE
  5
47B
330
1F
100
AcDbEntity
  8
0-0
  6
JWW_HOJO
 62
   120
370
     5
100
AcDbLine
 10
3062.498822858945
 20
-369.5194617161587
 30
0.0
 11
1292.498822858945
 21
-369.5194617161587
 31
0.0
  0
LINE
  5
47C
330
1F
100
AcDbEntity
  8
0-B
  6
Continuous
 62
   120
370
     5
100
AcDbLine
 10
2972.498822858943
 20
-269.5194617161593
 30
0.0
 11
1582.498975446844
 21
-269.5194617161593
 31
0.0
  0
LINE
  5
47D
330
1F
100
AcDbEntity
  8
0-4
  6
Continuous
 62
    92
370
    13
100
AcDbLine
 10
1582.498975446844
 20
-119.5194617161593
 30
0.0
 11
2972.498822858943
 21
-119.5194617161593
 31
0.0
  0
LINE
  5
47E
330
1F
100
AcDbEntity
  8
0-B
  6
Continuous
 62
   120
370
     5
100
AcDbLine
 10
2972.498822858943
 20
-269.5194617161593
 30
0.0
 11
2972.498822858943
 21
-169.519461716159
 31
0.0
  0
LWPOLYLINE
  5
47F
330
1F
100
AcDbEntity
  8
0-B
  6
Continuous
 62
     7
370
     9
100
AcDbPolyline
 90
        4
 70
     1
 43
3.0
 10
2973.998822858943
 20
-269.5194617161593
 42
0.4142135623731
 10
2972.498822858943
 20
-268.0194617161593
 42
0.4142135623731
 10
2970.998822858943
 20
-269.5194617161593
 42
0.4142135623731
 10
2972.498822858943
 20
-271.0194617161593
 42
0.4142135623731
  0
LINE
  5
480
330
1F
100
AcDbEntity
  8
0-B
  6
Continuous
 62
   120
370
     5
100
AcDbLine
 10
3012.498822858944
 20
-269.5194617161593
 30
0.0
 11
2972.498822858943
 21
-269.5194617161593
 31
0.0
  0
LINE
  5
481
330
1F
100
AcDbEntity
  8
0-4
  6
Continuous
 62
    92
370
    13
100
AcDbLine
 10
2972.498822858943
 20
0.4805382838372907
 30
0.0
 11
3012.498822858944
 21
0.4805382838372907
 31
0.0
  0
LINE
  5
482
330
1F
100
AcDbEntity
  8
0-4
  6
Continuous
 62
    92
370
    13
100
AcDbLine
 10
2972.498822858943
 20
-119.5194617161593
 30
0.0
 11
2972.498822858943
 21
0.4796895137002366
 31
0.0
  0
ARC
  5
483
330
1F
100
AcDbEntity
  8
0-4
  6
Continuous
 62
    92
370
    13
100
AcDbCircle
 10
2982.498822858941
 20
0.4805382838372907
 30
0.0
 40
30.0
100
AcDbArc
 50
0.0
 51
90.0
  0
ARC
  5
484
330
1F
100
AcDbEntity
  8
0-4
  6
Continuous
 62
    92
370
    13
100
AcDbCircle
 10
2982.498822858941
 20
0.4805382838372907
 30
0.0
 40
25.0
100
AcDbArc
 50
0.0
 51
90.0
  0
LINE
  5
485
330
1F
100
AcDbEntity
  8
0-0
  6
JWW_HOJO
 62
   120
370
     5
100
AcDbLine
 10
3012.498822858944
 20
80.48053828384127
 30
0.0
 11
3012.498822858944
 21
-169.519461716159
 31
0.0
  0
LINE
  5
486
330
1F
100
AcDbEntity
  8
0-0
  6
JWW_HOJO
 62
   120
370
     5
100
AcDbLine
 10
1542.498822858944
 20
-169.519461716159
 30
0.0
 11
3012.498822858944
 21
-169.519461716159
 31
0.0
  0
LWPOLYLINE
  5
487
330
1F
100
AcDbEntity
  8
0-B
  6
Continuous
 62
     7
370
     9
100
AcDbPolyline
 90
        4
 70
     1
 43
3.0
 10
3013.998822858944
 20
-269.5194617161593
 42
0.4142135623731
 10
3012.498822858944
 20
-268.0194617161593
 42
0.4142135623731
 10
3010.998822858944
 20
-269.5194617161593
 42
0.4142135623731
 10
3012.498822858944
 20
-271.0194617161593
 42
0.4142135623731
  0
LINE
  5
488
330
1F
100
AcDbEntity
  8
0-B
  6
Continuous
 62
   120
370
     5
100
AcDbLine
 10
3012.498822858944
 20
-369.5194617161587
 30
0.0
 11
3012.498822858944
 21
-169.519461716159
 31
0.0
  0
LINE
  5
489
330
1F
100
AcDbEntity
  8
0-B
  6
Continuous
 62
   120
370
     5
100
AcDbLine
 10
3012.498822858944
 20
-369.5194617161587
 30
0.0
 11
1542.498822858941
 21
-369.5194617161587
 31
0.0
  0
LWPOLYLINE
  5
48A
330
1F
100
AcDbEntity
  8
0-B
  6
Continuous
 62
     7
370
     9
100
AcDbPolyline
 90
        4
 70
     1
 43
3.0
 10
3013.998822858944
 20
-369.5194617161587
 42
0.4142135623731
 10
3012.498822858944
 20
-368.0194617161587
 42
0.4142135623731
 10
3010.998822858944
 20
-369.5194617161587
 42
0.4142135623731
 10
3012.498822858944
 20
-371.0194617161587
 42
0.4142135623731
  0
MTEXT
  5
48B
330
1F
100
AcDbEntity
  8
0-B
  6
Continuous
 62
     7
370
   211
100
AcDbMText
 10
2964.998822858943
 20
-285.2294617161581
 30
0.0
 40
68.58
 41
45.0
 46
0.0
 71
     7
 72
     1
  1
{\fＭＳ ゴシック|b0|i0|c128|p49;4}
 73
     1
 44
1.0
  0
LINE
  5
48C
330
1F
100
AcDbEntity
  8
0-4
  6
Continuous
 62
    92
370
    13
100
AcDbLine
 10
1572.498403242249
 20
25.48101512099549
 30
0.0
 11
2982.499242475649
 21
25.48101512099549
 31
0.0
  0
LINE
  5
48D
330
1F
100
AcDbEntity
  8
0-4
  6
Continuous
 62
    92
370
    13
100
AcDbLine
 10
1572.498822858944
 20
30.4805382838407
 30
0.0
 11
2982.498822858941
 21
30.4805382838407
 31
0.0
  0
LINE
  5
48E
330
1F
100
AcDbEntity
  8
0-0
  6
JWW_HOJO
 62
   120
370
     5
100
AcDbLine
 10
1542.498822858944
 20
80.48053828384127
 30
0.0
 11
3012.498822858944
 21
80.48053828384127
 31
0.0
  0
MTEXT
  5
48F
330
1F
100
AcDbEntity
  8
0-B
  6
Continuous
 62
     7
370
   211
100
AcDbMText
 10
2228.748822858944
 20
-381.4194617161593
 30
0.0
 40
76.19999999999999
 41
150.0
 46
0.0
 71
     7
 72
     1
  1
{\fＭＳ ゴシック|b0|i0|c128|p49;147}
 73
     1
 44
1.0
  0
MTEXT
  5
490
330
1F
100
AcDbEntity
  8
0-B
  6
Continuous
 62
     7
370
   211
100
AcDbMText
 10
2228.748899152894
 20
-281.4194617161581
 30
0.0
 40
76.19999999999999
 41
150.0
 46
0.0
 71
     7
 72
     1
  1
{\fＭＳ ゴシック|b0|i0|c128|p49;139}
 73
     1
 44
1.0
  0
MTEXT
  5
491
330
1F
100
AcDbEntity
  8
0-A
  6
Continuous
 62
     7
370
     9
100
AcDbMText
 10
-2314.999830916126
 20
339.5581071524694
 30
0.0
 40
68.58000000000001
 41
720.0
 46
0.0
 71
     7
 72
     1
  1
{\fＭＳ ゴシック|b0|i0|c128|p49;3,600×111×15.0}
 73
     1
 44
1.0
  0
MTEXT
  5
492
330
1F
100
AcDbEntity
  8
0-A
  6
Continuous
 62
     7
370
     9
100
AcDbMText
 10
-417.4998309161262
 20
339.5581071524694
 30
0.0
 40
68.58
 41
45.0
 46
0.0
 71
     7
 72
     1
  1
{\fＭＳ ゴシック|b0|i0|c128|p49;1}
 73
     1
 44
1.0
  0
MTEXT
  5
493
330
1F
100
AcDbEntity
  8
0-A
  6
Continuous
 62
     7
370
     9
100
AcDbMText
 10
-1444.999830916126
 20
335.948633468258
 30
0.0
 40
61.36105263157894
 41
765.0
 46
0.0
 71
     7
 72
     1
  1
{\fＭＳ ゴシック|b0|i0|c128|p49;ＤＣＱＷ7ＳＢ-Ｔ-□}
 73
     1
 44
1.0
  0
MTEXT
  5
494
330
1F
100
AcDbEntity
  8
0-A
  6
Continuous
 62
     7
370
     9
100
AcDbMText
 10
3532.499897931074
 20
339.5581071524694
 30
0.0
 40
68.58000000000001
 41
720.0
 46
0.0
 71
     7
 72
     1
  1
{\fＭＳ ゴシック|b0|i0|c128|p49;3,600×147×15.0}
 73
     1
 44
1.0
  0
MTEXT
  5
495
330
1F
100
AcDbEntity
  8
0-A
  6
Continuous
 62
     7
370
     9
100
AcDbMText
 10
5429.999897931076
 20
339.5581071524694
 30
0.0
 40
68.58
 41
45.0
 46
0.0
 71
     7
 72
     1
  1
{\fＭＳ ゴシック|b0|i0|c128|p49;1}
 73
     1
 44
1.0
  0
MTEXT
  5
496
330
1F
100
AcDbEntity
  8
0-A
  6
Continuous
 62
     7
370
     9
100
AcDbMText
 10
4402.499897931073
 20
335.9486334682588
 30
0.0
 40
61.36105263157894
 41
765.0
 46
0.0
 71
     7
 72
     1
  1
{\fＭＳ ゴシック|b0|i0|c128|p49;ＤＣＱＷ9ＳＢ-Ｔ-□}
 73
     1
 44
1.0
  0
ENDSEC
  0
SECTION
  2
OBJECTS
  0
DICTIONARY
  5
C
330
0
100
AcDbDictionary
281
     1
  3
ACAD_GROUP
350
D
  3
ACAD_LAYOUT
350
1A
  3
ACAD_MATERIAL
350
3B
  3
ACAD_MLEADERSTYLE
350
498
  3
ACAD_MLINESTYLE
350
17
  3
ACAD_PLOTSETTINGS
350
19
  3
ACAD_PLOTSTYLENAME
350
E
  3
ACAD_TABLESTYLE
350
497
  3
ACAD_VISUALSTYLE
350
2A
  0
DICTIONARY
  5
D
102
{ACAD_REACTORS
330
C
102
}
330
C
100
AcDbDictionary
281
     1
  0
DICTIONARY
  5
1A
102
{ACAD_REACTORS
330
C
102
}
330
C
100
AcDbDictionary
281
     1
  3
Layout1
350
1E
  3
Layout2
350
26
  3
Model
350
22
  0
DICTIONARY
  5
3B
102
{ACAD_REACTORS
330
C
102
}
330
C
100
AcDbDictionary
281
     1
  3
ByBlock
350
3D
  3
ByLayer
350
3C
  3
Global
350
3E
  0
DICTIONARY
  5
498
102
{ACAD_REACTORS
330
C
102
}
330
C
100
AcDbDictionary
281
     1
  0
DICTIONARY
  5
17
102
{ACAD_REACTORS
330
C
102
}
330
C
100
AcDbDictionary
281
     1
  3
Standard
350
18
  0
DICTIONARY
  5
19
102
{ACAD_REACTORS
330
C
102
}
330
C
100
AcDbDictionary
281
     1
  0
ACDBDICTIONARYWDFLT
  5
E
102
{ACAD_REACTORS
330
C
102
}
330
C
100
AcDbDictionary
281
     1
  3
Normal
350
F
100
AcDbDictionaryWithDefault
340
F
  0
DICTIONARY
  5
497
102
{ACAD_REACTORS
330
C
102
}
330
C
100
AcDbDictionary
281
     1
  0
DICTIONARY
  5
2A
102
{ACAD_REACTORS
330
C
102
}
330
C
100
AcDbDictionary
281
     1
  3
2dWireframe
350
2F
  3
3D Hidden
350
31
  3
3dWireframe
350
30
  3
Basic
350
32
  3
Brighten
350
36
  3
ColorChange
350
3A
  3
Conceptual
350
34
  3
Dim
350
35
  3
Facepattern
350
39
  3
Flat
350
2B
  3
FlatWithEdges
350
2C
  3
Gouraud
350
2D
  3
GouraudWithEdges
350
2E
  3
Linepattern
350
38
  3
Realistic
350
33
  3
Thicken
350
37
  0
LAYOUT
  5
1E
102
{ACAD_REACTORS
330
1A
102
}
330
1A
100
AcDbPlotSettings
  1

  2
none_device
  4

  6

 40
0.0
 41
0.0
 42
0.0
 43
0.0
 44
0.0
 45
0.0
 46
0.0
 47
0.0
 48
0.0
 49
0.0
140
0.0
141
0.0
142
1.0
143
1.0
 70
   688
 72
     0
 73
     0
 74
     5
  7

 75
    16
 76
     0
 77
     5
 78
   300
147
1.0
148
0.0
149
0.0
100
AcDbLayout
  1
Layout1
 70
     1
 71
     1
 10
0.0
 20
0.0
 11
420.0
 21
297.0
 12
0.0
 22
0.0
 32
0.0
 14
1.000000000000000E+20
 24
1.000000000000000E+20
 34
1.000000000000000E+20
 15
-1.000000000000000E+20
 25
-1.000000000000000E+20
 35
-1.000000000000000E+20
146
0.0
 13
0.0
 23
0.0
 33
0.0
 16
1.0
 26
0.0
 36
0.0
 17
0.0
 27
1.0
 37
0.0
 76
     0
330
1B
  0
LAYOUT
  5
26
102
{ACAD_REACTORS
330
1A
102
}
330
1A
100
AcDbPlotSettings
  1

  2
none_device
  4

  6

 40
0.0
 41
0.0
 42
0.0
 43
0.0
 44
0.0
 45
0.0
 46
0.0
 47
0.0
 48
0.0
 49
0.0
140
0.0
141
0.0
142
1.0
143
1.0
 70
   688
 72
     0
 73
     0
 74
     5
  7

 75
    16
 76
     0
 77
     5
 78
   300
147
1.0
148
0.0
149
0.0
100
AcDbLayout
  1
Layout2
 70
     1
 71
     2
 10
0.0
 20
0.0
 11
0.0
 21
0.0
 12
0.0
 22
0.0
 32
0.0
 14
0.0
 24
0.0
 34
0.0
 15
0.0
 25
0.0
 35
0.0
146
0.0
 13
0.0
 23
0.0
 33
0.0
 16
1.0
 26
0.0
 36
0.0
 17
0.0
 27
1.0
 37
0.0
 76
     0
330
23
  0
LAYOUT
  5
22
102
{ACAD_REACTORS
330
1A
102
}
330
1A
100
AcDbPlotSettings
  1

  2
none_device
  4

  6

 40
0.0
 41
0.0
 42
0.0
 43
0.0
 44
0.0
 45
0.0
 46
0.0
 47
0.0
 48
0.0
 49
0.0
140
0.0
141
0.0
142
1.0
143
1.0
 70
  1712
 72
     0
 73
     0
 74
     0
  7

 75
     0
 76
     0
 77
     5
 78
   300
147
1.0
148
0.0
149
0.0
100
AcDbLayout
  1
Model
 70
     1
 71
     0
 10
-6300.0
 20
-4455.0
 11
6300.0
 21
4455.0
 12
0.0
 22
0.0
 32
0.0
 14
-6300.0
 24
-4455.0
 34
0.0
 15
6300.0
 25
4455.0
 35
0.0
146
0.0
 13
0.0
 23
0.0
 33
0.0
 16
1.0
 26
0.0
 36
0.0
 17
0.0
 27
1.0
 37
0.0
 76
     0
330
1F
331
29
  0
MATERIAL
  5
3D
102
{ACAD_REACTORS
330
3B
102
}
330
3B
100
AcDbMaterial
  1
ByBlock
 72
     1
 94
      127
  0
MATERIAL
  5
3C
102
{ACAD_REACTORS
330
3B
102
}
330
3B
100
AcDbMaterial
  1
ByLayer
 72
     1
 94
      127
  0
MATERIAL
  5
3E
102
{ACAD_REACTORS
330
3B
102
}
330
3B
100
AcDbMaterial
  1
Global
 72
     1
 94
      127
  0
MLINESTYLE
  5
18
102
{ACAD_REACTORS
330
17
102
}
330
17
100
AcDbMlineStyle
  2
Standard
 70
     0
  3

 62
   256
 51
90.0
 52
90.0
 71
     2
 49
0.5
 62
   256
  6
BYLAYER
 49
-0.5
 62
   256
  6
BYLAYER
  0
ACDBPLACEHOLDER
  5
F
102
{ACAD_REACTORS
330
E
102
}
330
E
  0
VISUALSTYLE
  5
2F
102
{ACAD_REACTORS
330
2A
102
}
330
2A
100
AcDbVisualStyle
  2
2dWireframe
 70
     4
177
     2
291
     0
 71
     0
176
     1
 72
     2
176
     1
 73
     0
176
     1
 90
        0
176
     1
 40
-0.6
176
     1
 41
-30.0
176
     1
 62
     5
 63
     7
421
 16777215
176
     1
 74
     1
176
     1
 91
        4
176
     1
 64
     7
176
     1
 65
   257
176
     1
 75
     1
176
     1
175
     1
176
     1
 42
1.0
176
     1
 92
        0
176
     1
 66
   257
176
     1
 43
1.0
176
     1
 76
     1
176
     1
 77
     6
176
     1
 78
     2
176
     1
 67
     7
176
     1
 79
     5
176
     1
170
     0
176
     1
171
     0
176
     1
290
     0
176
     1
 93
        1
176
     1
 44
0.0
176
     1
173
     0
176
     1
  0
VISUALSTYLE
  5
31
102
{ACAD_REACTORS
330
2A
102
}
330
2A
100
AcDbVisualStyle
  2
3D Hidden
 70
     6
177
     2
291
     0
 71
     1
176
     1
 72
     2
176
     1
 73
     2
176
     1
 90
        0
176
     1
 40
-0.6
176
     1
 41
-30.0
176
     1
 62
     5
 63
     7
421
 16777215
176
     1
 74
     2
176
     1
 91
        2
176
     1
 64
     7
176
     1
 65
   257
176
     1
 75
     2
176
     1
175
     1
176
     1
 42
40.0
176
     1
 92
        0
176
     1
 66
   257
176
     1
 43
1.0
176
     1
 76
     1
176
     1
 77
     6
176
     1
 78
     2
176
     1
 67
     7
176
     1
 79
     3
176
     1
170
     0
176
     1
171
     0
176
     1
290
     0
176
     1
 93
        1
176
     1
 44
0.0
176
     1
173
     0
176
     1
  0
VISUALSTYLE
  5
30
102
{ACAD_REACTORS
330
2A
102
}
330
2A
100
AcDbVisualStyle
  2
3dWireframe
 70
     5
177
     2
291
     0
 71
     0
176
     1
 72
     2
176
     1
 73
     0
176
     1
 90
        0
176
     1
 40
-0.6
176
     1
 41
-30.0
176
     1
 62
     5
 63
     7
421
 16777215
176
     1
 74
     1
176
     1
 91
        4
176
     1
 64
     7
176
     1
 65
   257
176
     1
 75
     1
176
     1
175
     1
176
     1
 42
1.0
176
     1
 92
        0
176
     1
 66
   257
176
     1
 43
1.0
176
     1
 76
     1
176
     1
 77
     6
176
     1
 78
     2
176
     1
 67
     7
176
     1
 79
     5
176
     1
170
     0
176
     1
171
     0
176
     1
290
     0
176
     1
 93
        1
176
     1
 44
0.0
176
     1
173
     0
176
     1
  0
VISUALSTYLE
  5
32
102
{ACAD_REACTORS
330
2A
102
}
330
2A
100
AcDbVisualStyle
  2
Basic
 70
     7
177
     2
291
     1
 71
     1
176
     1
 72
     0
176
     1
 73
     1
176
     1
 90
        0
176
     1
 40
-0.6
176
     1
 41
-30.0
176
     1
 62
     5
 63
     7
421
 16777215
176
     1
 74
     0
176
     1
 91
        4
176
     1
 64
     7
176
     1
 65
   257
176
     1
 75
     1
176
     1
175
     1
176
     1
 42
1.0
176
     1
 92
        8
176
     1
 66
     7
176
     1
 43
1.0
176
     1
 76
     1
176
     1
 77
     6
176
     1
 78
     2
176
     1
 67
     7
176
     1
 79
     5
176
     1
170
     0
176
     1
171
     0
176
     1
290
     0
176
     1
 93
        1
176
     1
 44
0.0
176
     1
173
     0
176
     1
  0
VISUALSTYLE
  5
36
102
{ACAD_REACTORS
330
2A
102
}
330
2A
100
AcDbVisualStyle
  2
Brighten
 70
    12
177
     2
291
     1
 71
     2
176
     1
 72
     2
176
     1
 73
     0
176
     1
 90
        0
176
     1
 40
-0.6
176
     1
 41
-30.0
176
     1
 62
     5
 63
     7
421
 16777215
176
     1
 74
     1
176
     1
 91
        4
176
     1
 64
     7
176
     1
 65
   257
176
     1
 75
     1
176
     1
175
     1
176
     1
 42
1.0
176
     1
 92
        8
176
     1
 66
     7
176
     1
 43
1.0
176
     1
 76
     1
176
     1
 77
     6
176
     1
 78
     2
176
     1
 67
     7
176
     1
 79
     5
176
     1
170
     0
176
     1
171
     0
176
     1
290
     0
176
     1
 93
        1
176
     1
 44
50.0
176
     1
173
     0
176
     1
  0
VISUALSTYLE
  5
3A
102
{ACAD_REACTORS
330
2A
102
}
330
2A
100
AcDbVisualStyle
  2
ColorChange
 70
    16
177
     2
291
     1
 71
     2
176
     1
 72
     2
176
     1
 73
     3
176
     1
 90
        0
176
     1
 40
-0.6
176
     1
 41
-30.0
176
     1
 62
     5
 63
     8
421
  8421504
176
     1
 74
     1
176
     1
 91
        4
176
     1
 64
     7
176
     1
 65
   257
176
     1
 75
     1
176
     1
175
     1
176
     1
 42
1.0
176
     1
 92
        8
176
     1
 66
     8
424
  8421504
176
     1
 43
1.0
176
     1
 76
     1
176
     1
 77
     6
176
     1
 78
     2
176
     1
 67
     7
176
     1
 79
     5
176
     1
170
     0
176
     1
171
     0
176
     1
290
     0
176
     1
 93
        1
176
     1
 44
0.0
176
     1
173
     0
176
     1
  0
VISUALSTYLE
  5
34
102
{ACAD_REACTORS
330
2A
102
}
330
2A
100
AcDbVisualStyle
  2
Conceptual
 70
     9
177
     2
291
     0
 71
     3
176
     1
 72
     2
176
     1
 73
     0
176
     1
 90
        0
176
     1
 40
-0.6
176
     1
 41
-30.0
176
     1
 62
     5
 63
     7
421
 16777215
176
     1
 74
     2
176
     1
 91
        2
176
     1
 64
     7
176
     1
 65
   257
176
     1
 75
     1
176
     1
175
     1
176
     1
 42
40.0
176
     1
 92
        8
176
     1
 66
     7
176
     1
 43
1.0
176
     1
 76
     1
176
     1
 77
     6
176
     1
 78
     2
176
     1
 67
     7
176
     1
 79
     3
176
     1
170
     0
176
     1
171
     0
176
     1
290
     0
176
     1
 93
        1
176
     1
 44
0.0
176
     1
173
     0
176
     1
  0
VISUALSTYLE
  5
35
102
{ACAD_REACTORS
330
2A
102
}
330
2A
100
AcDbVisualStyle
  2
Dim
 70
    11
177
     2
291
     1
 71
     2
176
     1
 72
     2
176
     1
 73
     0
176
     1
 90
        0
176
     1
 40
-0.6
176
     1
 41
-30.0
176
     1
 62
     5
 63
     7
421
 16777215
176
     1
 74
     1
176
     1
 91
        4
176
     1
 64
     7
176
     1
 65
   257
176
     1
 75
     1
176
     1
175
     1
176
     1
 42
1.0
176
     1
 92
        8
176
     1
 66
     7
176
     1
 43
1.0
176
     1
 76
     1
176
     1
 77
     6
176
     1
 78
     2
176
     1
 67
     7
176
     1
 79
     5
176
     1
170
     0
176
     1
171
     0
176
     1
290
     0
176
     1
 93
        1
176
     1
 44
-50.0
176
     1
173
     0
176
     1
  0
VISUALSTYLE
  5
39
102
{ACAD_REACTORS
330
2A
102
}
330
2A
100
AcDbVisualStyle
  2
Facepattern
 70
    15
177
     2
291
     1
 71
     2
176
     1
 72
     2
176
     1
 73
     0
176
     1
 90
        0
176
     1
 40
-0.6
176
     1
 41
-30.0
176
     1
 62
     5
 63
     7
421
 16777215
176
     1
 74
     1
176
     1
 91
        4
176
     1
 64
     7
176
     1
 65
   257
176
     1
 75
     1
176
     1
175
     1
176
     1
 42
1.0
176
     1
 92
        8
176
     1
 66
     7
176
     1
 43
1.0
176
     1
 76
     1
176
     1
 77
     6
176
     1
 78
     2
176
     1
 67
     7
176
     1
 79
     5
176
     1
170
     0
176
     1
171
     0
176
     1
290
     0
176
     1
 93
        1
176
     1
 44
0.0
176
     1
173
     0
176
     1
  0
VISUALSTYLE
  5
2B
102
{ACAD_REACTORS
330
2A
102
}
330
2A
100
AcDbVisualStyle
  2
Flat
 70
     0
177
     2
291
     1
 71
     2
176
     1
 72
     1
176
     1
 73
     1
176
     1
 90
        2
176
     1
 40
-0.6
176
     1
 41
30.0
176
     1
 62
     5
 63
     7
421
 16777215
176
     1
 74
     0
176
     1
 91
        4
176
     1
 64
     7
176
     1
 65
   257
176
     1
 75
     1
176
     1
175
     1
176
     1
 42
1.0
176
     1
 92
        8
176
     1
 66
     7
176
     1
 43
1.0
176
     1
 76
     1
176
     1
 77
     6
176
     1
 78
     2
176
     1
 67
     7
176
     1
 79
     5
176
     1
170
     0
176
     1
171
     0
176
     1
290
     0
176
     1
 93
       13
176
     1
 44
0.0
176
     1
173
     0
176
     1
  0
VISUALSTYLE
  5
2C
102
{ACAD_REACTORS
330
2A
102
}
330
2A
100
AcDbVisualStyle
  2
FlatWithEdges
 70
     1
177
     2
291
     1
 71
     2
176
     1
 72
     1
176
     1
 73
     1
176
     1
 90
        2
176
     1
 40
-0.6
176
     1
 41
30.0
176
     1
 62
     5
 63
     7
421
 16777215
176
     1
 74
     1
176
     1
 91
        4
176
     1
 64
     7
176
     1
 65
   257
176
     1
 75
     1
176
     1
175
     1
176
     1
 42
1.0
176
     1
 92
        0
176
     1
 66
   257
176
     1
 43
1.0
176
     1
 76
     1
176
     1
 77
     6
176
     1
 78
     2
176
     1
 67
     7
176
     1
 79
     5
176
     1
170
     0
176
     1
171
     0
176
     1
290
     0
176
     1
 93
       13
176
     1
 44
0.0
176
     1
173
     0
176
     1
  0
VISUALSTYLE
  5
2D
102
{ACAD_REACTORS
330
2A
102
}
330
2A
100
AcDbVisualStyle
  2
Gouraud
 70
     2
177
     2
291
     1
 71
     2
176
     1
 72
     2
176
     1
 73
     1
176
     1
 90
        2
176
     1
 40
-0.6
176
     1
 41
30.0
176
     1
 62
     5
 63
     7
421
 16777215
176
     1
 74
     0
176
     1
 91
        4
176
     1
 64
     7
176
     1
 65
   257
176
     1
 75
     1
176
     1
175
     1
176
     1
 42
1.0
176
     1
 92
        0
176
     1
 66
     7
176
     1
 43
1.0
176
     1
 76
     1
176
     1
 77
     6
176
     1
 78
     2
176
     1
 67
     7
176
     1
 79
     5
176
     1
170
     0
176
     1
171
     0
176
     1
290
     0
176
     1
 93
       13
176
     1
 44
0.0
176
     1
173
     0
176
     1
  0
VISUALSTYLE
  5
2E
102
{ACAD_REACTORS
330
2A
102
}
330
2A
100
AcDbVisualStyle
  2
GouraudWithEdges
 70
     3
177
     2
291
     1
 71
     2
176
     1
 72
     2
176
     1
 73
     1
176
     1
 90
        2
176
     1
 40
-0.6
176
     1
 41
30.0
176
     1
 62
     5
 63
     7
421
 16777215
176
     1
 74
     1
176
     1
 91
        4
176
     1
 64
     7
176
     1
 65
   257
176
     1
 75
     1
176
     1
175
     1
176
     1
 42
1.0
176
     1
 92
        0
176
     1
 66
   257
176
     1
 43
1.0
176
     1
 76
     1
176
     1
 77
     6
176
     1
 78
     2
176
     1
 67
     7
176
     1
 79
     5
176
     1
170
     0
176
     1
171
     0
176
     1
290
     0
176
     1
 93
       13
176
     1
 44
0.0
176
     1
173
     0
176
     1
  0
VISUALSTYLE
  5
38
102
{ACAD_REACTORS
330
2A
102
}
330
2A
100
AcDbVisualStyle
  2
Linepattern
 70
    14
177
     2
291
     1
 71
     2
176
     1
 72
     2
176
     1
 73
     0
176
     1
 90
        0
176
     1
 40
-0.6
176
     1
 41
-30.0
176
     1
 62
     5
 63
     7
421
 16777215
176
     1
 74
     1
176
     1
 91
        4
176
     1
 64
     7
176
     1
 65
   257
176
     1
 75
     7
176
     1
175
     7
176
     1
 42
1.0
176
     1
 92
        8
176
     1
 66
     7
176
     1
 43
1.0
176
     1
 76
     1
176
     1
 77
     6
176
     1
 78
     2
176
     1
 67
     7
176
     1
 79
     5
176
     1
170
     0
176
     1
171
     0
176
     1
290
     0
176
     1
 93
        1
176
     1
 44
0.0
176
     1
173
     0
176
     1
  0
VISUALSTYLE
  5
33
102
{ACAD_REACTORS
330
2A
102
}
330
2A
100
AcDbVisualStyle
  2
Realistic
 70
     8
177
     2
291
     0
 71
     2
176
     1
 72
     2
176
     1
 73
     0
176
     1
 90
        0
176
     1
 40
-0.6
176
     1
 41
-30.0
176
     1
 62
     5
 63
     7
421
 16777215
176
     1
 74
     1
176
     1
 91
        0
176
     1
 64
     7
176
     1
 65
   257
176
     1
 75
     1
176
     1
175
     1
176
     1
 42
1.0
176
     1
 92
        8
176
     1
 66
     8
424
  7895160
176
     1
 43
1.0
176
     1
 76
     1
176
     1
 77
     6
176
     1
 78
     2
176
     1
 67
     7
176
     1
 79
     5
176
     1
170
     0
176
     1
171
     0
176
     1
290
     0
176
     1
 93
       13
176
     1
 44
0.0
176
     1
173
     0
176
     1
  0
VISUALSTYLE
  5
37
102
{ACAD_REACTORS
330
2A
102
}
330
2A
100
AcDbVisualStyle
  2
Thicken
 70
    13
177
     2
291
     1
 71
     2
176
     1
 72
     2
176
     1
 73
     0
176
     1
 90
        0
176
     1
 40
-0.6
176
     1
 41
-30.0
176
     1
 62
     5
 63
     7
421
 16777215
176
     1
 74
     1
176
     1
 91
        4
176
     1
 64
     7
176
     1
 65
   257
176
     1
 75
     1
176
     1
175
     1
176
     1
 42
1.0
176
     1
 92
       12
176
     1
 66
     7
176
     1
 43
1.0
176
     1
 76
     1
176
     1
 77
     6
176
     1
 78
     2
176
     1
 67
     7
176
     1
 79
     5
176
     1
170
     0
176
     1
171
     0
176
     1
290
     0
176
     1
 93
        1
176
     1
 44
0.0
176
     1
173
     0
176
     1
  0
ENDSEC
  0
EOF
